  0
SECTION
  2
HEADER
  9
$ACADVER
  1
AC1009
  9
$DWGCODEPAGE
  3
ansi_1252
  9
$INSBASE
 10
0.0
 20
0.0
 30
0.0
  9
$EXTMIN
 10
42.798573
 20
-111.973839
 30
0.0
  9
$EXTMAX
 10
512.562683
 20
192.147476
 30
0.0
  9
$LIMMIN
 10
0.0
 20
0.0
  9
$LIMMAX
 10
0.0
 20
0.0
  9
$ORTHOMODE
 70
     0
  9
$REGENMODE
 70
     1
  9
$FILLMODE
 70
     1
  9
$QTEXTMODE
 70
     0
  9
$MIRRTEXT
 70
     1
  9
$DRAGMODE
 70
     2
  9
$LTSCALE
 40
1.0
  9
$OSMODE
 70
     0
  9
$ATTMODE
 70
     1
  9
$TEXTSIZE
 40
0.2
  9
$TRACEWID
 40
0.05
  9
$TEXTSTYLE
  7
STANDARD
  9
$CLAYER
  8
0
  9
$CELTYPE
  6
CONTINUOUS
  9
$CECOLOR
 62
   256
  9
$DIMSCALE
 40
1.0
  9
$DIMASZ
 40
0.18
  9
$DIMEXO
 40
0.0625
  9
$DIMDLI
 40
0.38
  9
$DIMRND
 40
0.0
  9
$DIMDLE
 40
0.0
  9
$DIMEXE
 40
0.18
  9
$DIMTP
 40
0.0
  9
$DIMTM
 40
0.0
  9
$DIMTXT
 40
0.18
  9
$DIMCEN
 40
0.09
  9
$DIMTSZ
 40
0.0
  9
$DIMTOL
 70
     0
  9
$DIMLIM
 70
     0
  9
$DIMTIH
 70
     1
  9
$DIMTOH
 70
     1
  9
$DIMSE1
 70
     0
  9
$DIMSE2
 70
     0
  9
$DIMTAD
 70
     0
  9
$DIMZIN
 70
     0
  9
$DIMBLK
  1

  9
$DIMASO
 70
     1
  9
$DIMSHO
 70
     1
  9
$DIMPOST
  1

  9
$DIMAPOST
  1

  9
$DIMALT
 70
     0
  9
$DIMALTD
 70
     2
  9
$DIMALTF
 40
25.4
  9
$DIMLFAC
 40
1.0
  9
$DIMTOFL
 70
     0
  9
$DIMTVP
 40
0.0
  9
$DIMTIX
 70
     0
  9
$DIMSOXD
 70
     0
  9
$DIMSAH
 70
     0
  9
$DIMBLK1
  1

  9
$DIMBLK2
  1

  9
$DIMSTYLE
  2
STANDARD
  9
$DIMCLRD
 70
     0
  9
$DIMCLRE
 70
     0
  9
$DIMCLRT
 70
     0
  9
$DIMTFAC
 40
1.0
  9
$DIMGAP
 40
0.09
  9
$LUNITS
 70
     2
  9
$LUPREC
 70
     4
  9
$AXISMODE
 70
     0
  9
$AXISUNIT
 10
0.0
 20
0.0
  9
$SKETCHINC
 40
0.1
  9
$FILLETRAD
 40
0.0
  9
$AUNITS
 70
     0
  9
$AUPREC
 70
     0
  9
$MENU
  1
acad
  9
$ELEVATION
 40
0.0
  9
$PELEVATION
 40
0.0
  9
$THICKNESS
 40
0.0
  9
$LIMCHECK
 70
     0
  9
$BLIPMODE
 70
     1
  9
$CHAMFERA
 40
0.0
  9
$CHAMFERB
 40
0.0
  9
$SKPOLY
 70
     0
  9
$TDCREATE
 40
0.000000000
  9
$TDUPDATE
 40
0.000000000
  9
$TDINDWG
 40
0.0000000000
  9
$TDUSRTIMER
 40
0.0000000000
  9
$USRTIMER
 70
     1
  9
$ANGBASE
 50
0.0
  9
$ANGDIR
 70
     0
  9
$PDMODE
 70
     0
  9
$PDSIZE
 40
0.0
  9
$PLINEWID
 40
0.0
  9
$COORDS
 70
     0
  9
$SPLFRAME
 70
     0
  9
$SPLINETYPE
 70
     6
  9
$SPLINESEGS
 70
     8
  9
$ATTDIA
 70
     0
  9
$ATTREQ
 70
     1
  9
$HANDLING
 70
     1
  9
$HANDSEED
  5
255
  9
$SURFTAB1
 70
     6
  9
$SURFTAB2
 70
     6
  9
$SURFTYPE
 70
     6
  9
$SURFU
 70
     6
  9
$SURFV
 70
     6
  9
$UCSNAME
  2

  9
$UCSORG
 10
0.0
 20
0.0
 30
0.0
  9
$UCSXDIR
 10
1.0
 20
0.0
 30
0.0
  9
$UCSYDIR
 10
0.0
 20
1.0
 30
0.0
  9
$PUCSNAME
  2

  9
$PUCSORG
 10
0.0
 20
0.0
 30
0.0
  9
$PUCSXDIR
 10
1.0
 20
0.0
 30
0.0
  9
$PUCSYDIR
 10
0.0
 20
1.0
 30
0.0
  9
$USERI1
 70
     0
  9
$USERI2
 70
     0
  9
$USERI3
 70
     0
  9
$USERI4
 70
     0
  9
$USERI5
 70
     0
  9
$USERR1
 40
0.0
  9
$USERR2
 40
0.0
  9
$USERR3
 40
0.0
  9
$USERR4
 40
0.0
  9
$USERR5
 40
0.0
  9
$WORLDVIEW
 70
     1
  9
$SHADEDGE
 70
     3
  9
$SHADEDIF
 70
    70
  9
$TILEMODE
 70
     1
  9
$MAXACTVP
 70
    16
  9
$PINSBASE
 10
0.0
 20
0.0
 30
0.0
  9
$PLIMCHECK
 70
     0
  9
$PEXTMIN
 10
1.000000E+20
 20
1.000000E+20
 30
1.000000E+20
  9
$PEXTMAX
 10
-1.000000E+20
 20
-1.000000E+20
 30
-1.000000E+20
  9
$PLIMMIN
 10
0.0
 20
0.0
  9
$PLIMMAX
 10
12.0
 20
9.0
  9
$UNITMODE
 70
     0
  9
$VISRETAIN
 70
     0
  9
$PLINEGEN
 70
     1
  9
$PSLTSCALE
 70
     0
  9
$TREEDEPTH
 70
  3020
  0
ENDSEC
  0
SECTION
  2
TABLES
  0
TABLE
  2
VPORT
 70
     1
  0
VPORT
  2
*ACTIVE
 70
     0
 10
0.0
 20
0.0
 11
1.0
 21
1.0
 12
6.591288
 22
4.579184
 13
0.0
 23
0.0
 14
1.0
 24
1.0
 15
0.0
 25
0.0
 16
0.0
 26
0.0
 36
1.0
 17
0.0
 27
0.0
 37
0.0
 40
9.158369
 41
0.688564
 42
50.0
 43
0.0
 44
0.0
 50
0.0
 51
0.0
 71
     0
 72
   100
 73
     1
 74
     1
 75
     0
 76
     0
 77
     0
 78
     0
  0
ENDTAB
  0
TABLE
  2
LTYPE
 70
   183
  0
LTYPE
  2
CONTINUOUS
 70
    64
  3
Solid line
 72
    65
 73
     0
 40
0.0
  0
LTYPE
  2
DURCHGEHEND
 70
    64
  3

 72
    65
 73
     0
 40
0.0
  0
LTYPE
  2
GESTRICHELT
 70
    64
  3

 72
    65
 73
     2
 40
10.0
 49
5.0
 49
-5.0
  0
LTYPE
  2
MITTELLINIE
 70
    64
  3

 72
    65
 73
     4
 40
20.0
 49
10.0
 49
-2.0
 49
5.0
 49
-3.0
  0
LTYPE
  2
PUNKTIERT
 70
    64
  3

 72
    65
 73
     2
 40
0.25
 49
0.0
 49
-0.25
  0
LTYPE
  2
STRICHPUNKTIERT
 70
    64
  3

 72
    65
 73
     4
 40
12.0
 49
5.0
 49
-3.0
 49
1.0
 49
-3.0
  0
LTYPE
  2
STRICH-PUNKT-PUNKT
 70
    64
  3

 72
    65
 73
     6
 40
10.0
 49
5.0
 49
-1.0
 49
1.0
 49
-1.0
 49
1.0
 49
-1.0
  0
LTYPE
  2
STARTPFEIL
 70
    64
  3

 72
    65
 73
     0
 40
0.0
  0
LTYPE
  2
ENDPFEIL
 70
    64
  3

 72
    65
 73
     0
 40
0.0
  0
LTYPE
  2
ENDPUNKT
 70
    64
  3

 72
    65
 73
     0
 40
0.0
  0
LTYPE
  2
PFEIL
 70
    64
  3

 72
    65
 73
     0
 40
0.0
  0
LTYPE
  2
STITCHLINE
 70
    64
  3

 72
    65
 73
     2
 40
6.0
 49
3.0
 49
-3.0
  0
LTYPE
  2
MITTELLINIE_2
 70
    64
  3

 72
    65
 73
     4
 40
17.0
 49
10.0
 49
-2.0
 49
3.0
 49
-2.0
  0
LTYPE
  2
VERDECKTE_LINIE
 70
    64
  3

 72
    65
 73
     2
 40
4.0
 49
2.0
 49
-2.0
  0
LTYPE
  2
PHANTOMLINIE
 70
    64
  3

 72
    65
 73
     6
 40
21.0
 49
10.0
 49
-2.0
 49
3.0
 49
-1.0
 49
3.0
 49
-2.0
  0
LTYPE
  2
BRUCHLINIE_1
 70
    64
  3

 72
    65
 73
     0
 40
0.0
  0
LTYPE
  2
BRUCHLINIE_2
 70
    64
  3

 72
    65
 73
     0
 40
0.0
  0
LTYPE
  2
_DURCHGEHEND
 70
    64
  3

 72
    65
 73
     0
 40
0.0
  0
LTYPE
  2
_GESTRICHELT
 70
    64
  3

 72
    65
 73
     2
 40
10.0
 49
5.0
 49
-5.0
  0
LTYPE
  2
_MITTELLINIE
 70
    64
  3

 72
    65
 73
     4
 40
20.0
 49
10.0
 49
-2.0
 49
5.0
 49
-3.0
  0
LTYPE
  2
_PUNKTIERT
 70
    64
  3

 72
    65
 73
     2
 40
0.25
 49
0.0
 49
-0.25
  0
LTYPE
  2
_STRICHPUNKTIERT
 70
    64
  3

 72
    65
 73
     4
 40
8.0
 49
5.0
 49
-1.0
 49
1.0
 49
-1.0
  0
LTYPE
  2
_STRICH-PUNKT-PUNKT
 70
    64
  3

 72
    65
 73
     6
 40
10.0
 49
5.0
 49
-1.0
 49
1.0
 49
-1.0
 49
1.0
 49
-1.0
  0
LTYPE
  2
_STARTPFEIL
 70
    64
  3

 72
    65
 73
     0
 40
0.0
  0
LTYPE
  2
_ENDPFEIL
 70
    64
  3

 72
    65
 73
     0
 40
0.0
  0
LTYPE
  2
_ENDPUNKT
 70
    64
  3

 72
    65
 73
     0
 40
0.0
  0
LTYPE
  2
_PFEIL
 70
    64
  3

 72
    65
 73
     0
 40
0.0
  0
LTYPE
  2
_STITCHLINE
 70
    64
  3

 72
    65
 73
     2
 40
6.0
 49
3.0
 49
-3.0
  0
LTYPE
  2
_MITTELLINIE_2
 70
    64
  3

 72
    65
 73
     4
 40
17.0
 49
10.0
 49
-2.0
 49
3.0
 49
-2.0
  0
LTYPE
  2
_VERDECKTE_LINIE
 70
    64
  3

 72
    65
 73
     2
 40
4.0
 49
2.0
 49
-2.0
  0
LTYPE
  2
_PHANTOMLINIE
 70
    64
  3

 72
    65
 73
     6
 40
21.0
 49
10.0
 49
-2.0
 49
3.0
 49
-1.0
 49
3.0
 49
-2.0
  0
LTYPE
  2
_BRUCHLINIE_1
 70
    64
  3

 72
    65
 73
     0
 40
0.0
  0
LTYPE
  2
_BRUCHLINIE_2
 70
    64
  3

 72
    65
 73
     0
 40
0.0
  0
LTYPE
  2
CONTINUOUS
 70
    64
  3

 72
    65
 73
     0
 40
0.0
  0
LTYPE
  2
_DURCHGEHEND
 70
    64
  3

 72
    65
 73
     0
 40
0.0
  0
LTYPE
  2
_GESTRICHELT
 70
    64
  3

 72
    65
 73
     2
 40
10.0
 49
5.0
 49
-5.0
  0
LTYPE
  2
_MITTELLINIE
 70
    64
  3

 72
    65
 73
     4
 40
20.0
 49
10.0
 49
-2.0
 49
5.0
 49
-3.0
  0
LTYPE
  2
_PUNKTIERT
 70
    64
  3

 72
    65
 73
     2
 40
0.25
 49
0.0
 49
-0.25
  0
LTYPE
  2
_STRICHPUNKTIERT
 70
    64
  3

 72
    65
 73
     4
 40
8.0
 49
5.0
 49
-1.0
 49
1.0
 49
-1.0
  0
LTYPE
  2
_STRICH-PUNKT-PUNKT
 70
    64
  3

 72
    65
 73
     6
 40
10.0
 49
5.0
 49
-1.0
 49
1.0
 49
-1.0
 49
1.0
 49
-1.0
  0
LTYPE
  2
_STARTPFEIL
 70
    64
  3

 72
    65
 73
     0
 40
0.0
  0
LTYPE
  2
_ENDPFEIL
 70
    64
  3

 72
    65
 73
     0
 40
0.0
  0
LTYPE
  2
_ENDPUNKT
 70
    64
  3

 72
    65
 73
     0
 40
0.0
  0
LTYPE
  2
_PFEIL
 70
    64
  3

 72
    65
 73
     0
 40
0.0
  0
LTYPE
  2
_STITCHLINE
 70
    64
  3

 72
    65
 73
     2
 40
6.0
 49
3.0
 49
-3.0
  0
LTYPE
  2
_MITTELLINIE_2
 70
    64
  3

 72
    65
 73
     4
 40
17.0
 49
10.0
 49
-2.0
 49
3.0
 49
-2.0
  0
LTYPE
  2
_VERDECKTE_LINIE
 70
    64
  3

 72
    65
 73
     2
 40
4.0
 49
2.0
 49
-2.0
  0
LTYPE
  2
_PHANTOMLINIE
 70
    64
  3

 72
    65
 73
     6
 40
21.0
 49
10.0
 49
-2.0
 49
3.0
 49
-1.0
 49
3.0
 49
-2.0
  0
LTYPE
  2
_BRUCHLINIE_1
 70
    64
  3

 72
    65
 73
     0
 40
0.0
  0
LTYPE
  2
_BRUCHLINIE_2
 70
    64
  3

 72
    65
 73
     0
 40
0.0
  0
LTYPE
  2
_DURCHGEHEND
 70
    64
  3

 72
    65
 73
     0
 40
0.0
  0
LTYPE
  2
_GESTRICHELT
 70
    64
  3

 72
    65
 73
     2
 40
10.0
 49
5.0
 49
-5.0
  0
LTYPE
  2
_MITTELLINIE
 70
    64
  3

 72
    65
 73
     4
 40
20.0
 49
10.0
 49
-2.0
 49
5.0
 49
-3.0
  0
LTYPE
  2
_PUNKTIERT
 70
    64
  3

 72
    65
 73
     2
 40
0.25
 49
0.0
 49
-0.25
  0
LTYPE
  2
_STRICHPUNKTIERT
 70
    64
  3

 72
    65
 73
     4
 40
8.0
 49
5.0
 49
-1.0
 49
1.0
 49
-1.0
  0
LTYPE
  2
_STRICH-PUNKT-PUNKT
 70
    64
  3

 72
    65
 73
     6
 40
10.0
 49
5.0
 49
-1.0
 49
1.0
 49
-1.0
 49
1.0
 49
-1.0
  0
LTYPE
  2
_STARTPFEIL
 70
    64
  3

 72
    65
 73
     0
 40
0.0
  0
LTYPE
  2
_ENDPFEIL
 70
    64
  3

 72
    65
 73
     0
 40
0.0
  0
LTYPE
  2
_ENDPUNKT
 70
    64
  3

 72
    65
 73
     0
 40
0.0
  0
LTYPE
  2
_PFEIL
 70
    64
  3

 72
    65
 73
     0
 40
0.0
  0
LTYPE
  2
_STITCHLINE
 70
    64
  3

 72
    65
 73
     2
 40
6.0
 49
3.0
 49
-3.0
  0
LTYPE
  2
_MITTELLINIE_2
 70
    64
  3

 72
    65
 73
     4
 40
17.0
 49
10.0
 49
-2.0
 49
3.0
 49
-2.0
  0
LTYPE
  2
_VERDECKTE_LINIE
 70
    64
  3

 72
    65
 73
     2
 40
4.0
 49
2.0
 49
-2.0
  0
LTYPE
  2
_PHANTOMLINIE
 70
    64
  3

 72
    65
 73
     6
 40
21.0
 49
10.0
 49
-2.0
 49
3.0
 49
-1.0
 49
3.0
 49
-2.0
  0
LTYPE
  2
_BRUCHLINIE_1
 70
    64
  3

 72
    65
 73
     0
 40
0.0
  0
LTYPE
  2
_BRUCHLINIE_2
 70
    64
  3

 72
    65
 73
     0
 40
0.0
  0
LTYPE
  2
SLDCENTERLINES0
 70
    64
  3

 72
    65
 73
     4
 40
19.05
 49
15.24
 49
-1.27
 49
1.27
 49
-1.27
  0
LTYPE
  2
SLDTANVISIBLE0
 70
    64
  3

 72
    65
 73
     6
 40
12.7
 49
6.35
 49
-1.27
 49
1.27
 49
-1.27
 49
1.27
 49
-1.27
  0
LTYPE
  2
_DURCHGEHEND
 70
    64
  3

 72
    65
 73
     0
 40
0.0
  0
LTYPE
  2
_GESTRICHELT
 70
    64
  3

 72
    65
 73
     2
 40
10.0
 49
5.0
 49
-5.0
  0
LTYPE
  2
_MITTELLINIE
 70
    64
  3

 72
    65
 73
     4
 40
20.0
 49
10.0
 49
-2.0
 49
5.0
 49
-3.0
  0
LTYPE
  2
_PUNKTIERT
 70
    64
  3

 72
    65
 73
     2
 40
0.25
 49
0.0
 49
-0.25
  0
LTYPE
  2
_STRICHPUNKTIERT
 70
    64
  3

 72
    65
 73
     4
 40
8.0
 49
5.0
 49
-1.0
 49
1.0
 49
-1.0
  0
LTYPE
  2
_STRICH-PUNKT-PUNKT
 70
    64
  3

 72
    65
 73
     6
 40
10.0
 49
5.0
 49
-1.0
 49
1.0
 49
-1.0
 49
1.0
 49
-1.0
  0
LTYPE
  2
_STARTPFEIL
 70
    64
  3

 72
    65
 73
     0
 40
0.0
  0
LTYPE
  2
_ENDPFEIL
 70
    64
  3

 72
    65
 73
     0
 40
0.0
  0
LTYPE
  2
_ENDPUNKT
 70
    64
  3

 72
    65
 73
     0
 40
0.0
  0
LTYPE
  2
_PFEIL
 70
    64
  3

 72
    65
 73
     0
 40
0.0
  0
LTYPE
  2
_STITCHLINE
 70
    64
  3

 72
    65
 73
     2
 40
6.0
 49
3.0
 49
-3.0
  0
LTYPE
  2
_MITTELLINIE_2
 70
    64
  3

 72
    65
 73
     4
 40
17.0
 49
10.0
 49
-2.0
 49
3.0
 49
-2.0
  0
LTYPE
  2
_VERDECKTE_LINIE
 70
    64
  3

 72
    65
 73
     2
 40
4.0
 49
2.0
 49
-2.0
  0
LTYPE
  2
_PHANTOMLINIE
 70
    64
  3

 72
    65
 73
     6
 40
21.0
 49
10.0
 49
-2.0
 49
3.0
 49
-1.0
 49
3.0
 49
-2.0
  0
LTYPE
  2
_BRUCHLINIE_1
 70
    64
  3

 72
    65
 73
     0
 40
0.0
  0
LTYPE
  2
_BRUCHLINIE_2
 70
    64
  3

 72
    65
 73
     0
 40
0.0
  0
LTYPE
  2
_DURCHGEHEND
 70
    64
  3

 72
    65
 73
     0
 40
0.0
  0
LTYPE
  2
_GESTRICHELT
 70
    64
  3

 72
    65
 73
     2
 40
10.0
 49
5.0
 49
-5.0
  0
LTYPE
  2
_MITTELLINIE
 70
    64
  3

 72
    65
 73
     4
 40
20.0
 49
10.0
 49
-2.0
 49
5.0
 49
-3.0
  0
LTYPE
  2
_PUNKTIERT
 70
    64
  3

 72
    65
 73
     2
 40
0.25
 49
0.0
 49
-0.25
  0
LTYPE
  2
_STRICHPUNKTIERT
 70
    64
  3

 72
    65
 73
     4
 40
8.0
 49
5.0
 49
-1.0
 49
1.0
 49
-1.0
  0
LTYPE
  2
_STRICH-PUNKT-PUNKT
 70
    64
  3

 72
    65
 73
     6
 40
10.0
 49
5.0
 49
-1.0
 49
1.0
 49
-1.0
 49
1.0
 49
-1.0
  0
LTYPE
  2
_STARTPFEIL
 70
    64
  3

 72
    65
 73
     0
 40
0.0
  0
LTYPE
  2
_ENDPFEIL
 70
    64
  3

 72
    65
 73
     0
 40
0.0
  0
LTYPE
  2
_ENDPUNKT
 70
    64
  3

 72
    65
 73
     0
 40
0.0
  0
LTYPE
  2
_PFEIL
 70
    64
  3

 72
    65
 73
     0
 40
0.0
  0
LTYPE
  2
_STITCHLINE
 70
    64
  3

 72
    65
 73
     2
 40
6.0
 49
3.0
 49
-3.0
  0
LTYPE
  2
_MITTELLINIE_2
 70
    64
  3

 72
    65
 73
     4
 40
17.0
 49
10.0
 49
-2.0
 49
3.0
 49
-2.0
  0
LTYPE
  2
_VERDECKTE_LINIE
 70
    64
  3

 72
    65
 73
     2
 40
4.0
 49
2.0
 49
-2.0
  0
LTYPE
  2
_PHANTOMLINIE
 70
    64
  3

 72
    65
 73
     6
 40
21.0
 49
10.0
 49
-2.0
 49
3.0
 49
-1.0
 49
3.0
 49
-2.0
  0
LTYPE
  2
_BRUCHLINIE_1
 70
    64
  3

 72
    65
 73
     0
 40
0.0
  0
LTYPE
  2
_BRUCHLINIE_2
 70
    64
  3

 72
    65
 73
     0
 40
0.0
  0
LTYPE
  2
_DURCHGEHEND
 70
    64
  3

 72
    65
 73
     0
 40
0.0
  0
LTYPE
  2
_GESTRICHELT
 70
    64
  3

 72
    65
 73
     2
 40
10.0
 49
5.0
 49
-5.0
  0
LTYPE
  2
_MITTELLINIE
 70
    64
  3

 72
    65
 73
     4
 40
20.0
 49
10.0
 49
-2.0
 49
5.0
 49
-3.0
  0
LTYPE
  2
_PUNKTIERT
 70
    64
  3

 72
    65
 73
     2
 40
0.25
 49
0.0
 49
-0.25
  0
LTYPE
  2
_STRICHPUNKTIERT
 70
    64
  3

 72
    65
 73
     4
 40
8.0
 49
5.0
 49
-1.0
 49
1.0
 49
-1.0
  0
LTYPE
  2
_STRICH-PUNKT-PUNKT
 70
    64
  3

 72
    65
 73
     6
 40
10.0
 49
5.0
 49
-1.0
 49
1.0
 49
-1.0
 49
1.0
 49
-1.0
  0
LTYPE
  2
_STARTPFEIL
 70
    64
  3

 72
    65
 73
     0
 40
0.0
  0
LTYPE
  2
_ENDPFEIL
 70
    64
  3

 72
    65
 73
     0
 40
0.0
  0
LTYPE
  2
_ENDPUNKT
 70
    64
  3

 72
    65
 73
     0
 40
0.0
  0
LTYPE
  2
_PFEIL
 70
    64
  3

 72
    65
 73
     0
 40
0.0
  0
LTYPE
  2
_STITCHLINE
 70
    64
  3

 72
    65
 73
     2
 40
6.0
 49
3.0
 49
-3.0
  0
LTYPE
  2
_MITTELLINIE_2
 70
    64
  3

 72
    65
 73
     4
 40
17.0
 49
10.0
 49
-2.0
 49
3.0
 49
-2.0
  0
LTYPE
  2
_VERDECKTE_LINIE
 70
    64
  3

 72
    65
 73
     2
 40
4.0
 49
2.0
 49
-2.0
  0
LTYPE
  2
_PHANTOMLINIE
 70
    64
  3

 72
    65
 73
     6
 40
21.0
 49
10.0
 49
-2.0
 49
3.0
 49
-1.0
 49
3.0
 49
-2.0
  0
LTYPE
  2
_BRUCHLINIE_1
 70
    64
  3

 72
    65
 73
     0
 40
0.0
  0
LTYPE
  2
_BRUCHLINIE_2
 70
    64
  3

 72
    65
 73
     0
 40
0.0
  0
LTYPE
  2
_DURCHGEHEND
 70
    64
  3

 72
    65
 73
     0
 40
0.0
  0
LTYPE
  2
_GESTRICHELT
 70
    64
  3

 72
    65
 73
     2
 40
10.0
 49
5.0
 49
-5.0
  0
LTYPE
  2
_MITTELLINIE
 70
    64
  3

 72
    65
 73
     4
 40
20.0
 49
10.0
 49
-2.0
 49
5.0
 49
-3.0
  0
LTYPE
  2
_PUNKTIERT
 70
    64
  3

 72
    65
 73
     2
 40
0.25
 49
0.0
 49
-0.25
  0
LTYPE
  2
_STRICHPUNKTIERT
 70
    64
  3

 72
    65
 73
     4
 40
8.0
 49
5.0
 49
-1.0
 49
1.0
 49
-1.0
  0
LTYPE
  2
_STRICH-PUNKT-PUNKT
 70
    64
  3

 72
    65
 73
     6
 40
10.0
 49
5.0
 49
-1.0
 49
1.0
 49
-1.0
 49
1.0
 49
-1.0
  0
LTYPE
  2
_STARTPFEIL
 70
    64
  3

 72
    65
 73
     0
 40
0.0
  0
LTYPE
  2
_ENDPFEIL
 70
    64
  3

 72
    65
 73
     0
 40
0.0
  0
LTYPE
  2
_ENDPUNKT
 70
    64
  3

 72
    65
 73
     0
 40
0.0
  0
LTYPE
  2
_PFEIL
 70
    64
  3

 72
    65
 73
     0
 40
0.0
  0
LTYPE
  2
_STITCHLINE
 70
    64
  3

 72
    65
 73
     2
 40
6.0
 49
3.0
 49
-3.0
  0
LTYPE
  2
_MITTELLINIE_2
 70
    64
  3

 72
    65
 73
     4
 40
17.0
 49
10.0
 49
-2.0
 49
3.0
 49
-2.0
  0
LTYPE
  2
_VERDECKTE_LINIE
 70
    64
  3

 72
    65
 73
     2
 40
4.0
 49
2.0
 49
-2.0
  0
LTYPE
  2
_PHANTOMLINIE
 70
    64
  3

 72
    65
 73
     6
 40
21.0
 49
10.0
 49
-2.0
 49
3.0
 49
-1.0
 49
3.0
 49
-2.0
  0
LTYPE
  2
_BRUCHLINIE_1
 70
    64
  3

 72
    65
 73
     0
 40
0.0
  0
LTYPE
  2
_BRUCHLINIE_2
 70
    64
  3

 72
    65
 73
     0
 40
0.0
  0
LTYPE
  2
_DURCHGEHEND
 70
    64
  3

 72
    65
 73
     0
 40
0.0
  0
LTYPE
  2
_GESTRICHELT
 70
    64
  3

 72
    65
 73
     2
 40
10.0
 49
5.0
 49
-5.0
  0
LTYPE
  2
_MITTELLINIE
 70
    64
  3

 72
    65
 73
     4
 40
20.0
 49
10.0
 49
-2.0
 49
5.0
 49
-3.0
  0
LTYPE
  2
_PUNKTIERT
 70
    64
  3

 72
    65
 73
     2
 40
0.25
 49
0.0
 49
-0.25
  0
LTYPE
  2
_STRICHPUNKTIERT
 70
    64
  3

 72
    65
 73
     4
 40
8.0
 49
5.0
 49
-1.0
 49
1.0
 49
-1.0
  0
LTYPE
  2
_STRICH-PUNKT-PUNKT
 70
    64
  3

 72
    65
 73
     6
 40
10.0
 49
5.0
 49
-1.0
 49
1.0
 49
-1.0
 49
1.0
 49
-1.0
  0
LTYPE
  2
_STARTPFEIL
 70
    64
  3

 72
    65
 73
     0
 40
0.0
  0
LTYPE
  2
_ENDPFEIL
 70
    64
  3

 72
    65
 73
     0
 40
0.0
  0
LTYPE
  2
_ENDPUNKT
 70
    64
  3

 72
    65
 73
     0
 40
0.0
  0
LTYPE
  2
_PFEIL
 70
    64
  3

 72
    65
 73
     0
 40
0.0
  0
LTYPE
  2
_STITCHLINE
 70
    64
  3

 72
    65
 73
     2
 40
6.0
 49
3.0
 49
-3.0
  0
LTYPE
  2
_MITTELLINIE_2
 70
    64
  3

 72
    65
 73
     4
 40
17.0
 49
10.0
 49
-2.0
 49
3.0
 49
-2.0
  0
LTYPE
  2
_VERDECKTE_LINIE
 70
    64
  3

 72
    65
 73
     2
 40
4.0
 49
2.0
 49
-2.0
  0
LTYPE
  2
_PHANTOMLINIE
 70
    64
  3

 72
    65
 73
     6
 40
21.0
 49
10.0
 49
-2.0
 49
3.0
 49
-1.0
 49
3.0
 49
-2.0
  0
LTYPE
  2
_BRUCHLINIE_1
 70
    64
  3

 72
    65
 73
     0
 40
0.0
  0
LTYPE
  2
_BRUCHLINIE_2
 70
    64
  3

 72
    65
 73
     0
 40
0.0
  0
LTYPE
  2
4_2-0_7-0_7-0_7
 70
    64
  3

 72
    65
 73
     4
 40
6.35
 49
4.233334
 49
-0.705556
 49
0.705556
 49
-0.705556
  0
LTYPE
  2
0_7-0_7
 70
    64
  3

 72
    65
 73
     2
 40
1.411111
 49
0.705556
 49
-0.705556
  0
LTYPE
  2
_DURCHGEHEND
 70
    64
  3

 72
    65
 73
     0
 40
0.0
  0
LTYPE
  2
_GESTRICHELT
 70
    64
  3

 72
    65
 73
     2
 40
10.0
 49
5.0
 49
-5.0
  0
LTYPE
  2
_MITTELLINIE
 70
    64
  3

 72
    65
 73
     4
 40
20.0
 49
10.0
 49
-2.0
 49
5.0
 49
-3.0
  0
LTYPE
  2
_PUNKTIERT
 70
    64
  3

 72
    65
 73
     2
 40
0.25
 49
0.0
 49
-0.25
  0
LTYPE
  2
_STRICHPUNKTIERT
 70
    64
  3

 72
    65
 73
     4
 40
8.0
 49
5.0
 49
-1.0
 49
1.0
 49
-1.0
  0
LTYPE
  2
_STRICH-PUNKT-PUNKT
 70
    64
  3

 72
    65
 73
     6
 40
10.0
 49
5.0
 49
-1.0
 49
1.0
 49
-1.0
 49
1.0
 49
-1.0
  0
LTYPE
  2
_STARTPFEIL
 70
    64
  3

 72
    65
 73
     0
 40
0.0
  0
LTYPE
  2
_ENDPFEIL
 70
    64
  3

 72
    65
 73
     0
 40
0.0
  0
LTYPE
  2
_ENDPUNKT
 70
    64
  3

 72
    65
 73
     0
 40
0.0
  0
LTYPE
  2
_PFEIL
 70
    64
  3

 72
    65
 73
     0
 40
0.0
  0
LTYPE
  2
_STITCHLINE
 70
    64
  3

 72
    65
 73
     2
 40
6.0
 49
3.0
 49
-3.0
  0
LTYPE
  2
_MITTELLINIE_2
 70
    64
  3

 72
    65
 73
     4
 40
17.0
 49
10.0
 49
-2.0
 49
3.0
 49
-2.0
  0
LTYPE
  2
_VERDECKTE_LINIE
 70
    64
  3

 72
    65
 73
     2
 40
4.0
 49
2.0
 49
-2.0
  0
LTYPE
  2
_PHANTOMLINIE
 70
    64
  3

 72
    65
 73
     6
 40
21.0
 49
10.0
 49
-2.0
 49
3.0
 49
-1.0
 49
3.0
 49
-2.0
  0
LTYPE
  2
_BRUCHLINIE_1
 70
    64
  3

 72
    65
 73
     0
 40
0.0
  0
LTYPE
  2
_BRUCHLINIE_2
 70
    64
  3

 72
    65
 73
     0
 40
0.0
  0
LTYPE
  2
_DURCHGEHEND
 70
    64
  3

 72
    65
 73
     0
 40
0.0
  0
LTYPE
  2
_GESTRICHELT
 70
    64
  3

 72
    65
 73
     2
 40
10.0
 49
5.0
 49
-5.0
  0
LTYPE
  2
_MITTELLINIE
 70
    64
  3

 72
    65
 73
     4
 40
20.0
 49
10.0
 49
-2.0
 49
5.0
 49
-3.0
  0
LTYPE
  2
_PUNKTIERT
 70
    64
  3

 72
    65
 73
     2
 40
0.25
 49
0.0
 49
-0.25
  0
LTYPE
  2
_STRICHPUNKTIERT
 70
    64
  3

 72
    65
 73
     4
 40
8.0
 49
5.0
 49
-1.0
 49
1.0
 49
-1.0
  0
LTYPE
  2
_STRICH-PUNKT-PUNKT
 70
    64
  3

 72
    65
 73
     6
 40
10.0
 49
5.0
 49
-1.0
 49
1.0
 49
-1.0
 49
1.0
 49
-1.0
  0
LTYPE
  2
_STARTPFEIL
 70
    64
  3

 72
    65
 73
     0
 40
0.0
  0
LTYPE
  2
_ENDPFEIL
 70
    64
  3

 72
    65
 73
     0
 40
0.0
  0
LTYPE
  2
_ENDPUNKT
 70
    64
  3

 72
    65
 73
     0
 40
0.0
  0
LTYPE
  2
_PFEIL
 70
    64
  3

 72
    65
 73
     0
 40
0.0
  0
LTYPE
  2
_STITCHLINE
 70
    64
  3

 72
    65
 73
     2
 40
6.0
 49
3.0
 49
-3.0
  0
LTYPE
  2
_MITTELLINIE_2
 70
    64
  3

 72
    65
 73
     4
 40
17.0
 49
10.0
 49
-2.0
 49
3.0
 49
-2.0
  0
LTYPE
  2
_VERDECKTE_LINIE
 70
    64
  3

 72
    65
 73
     2
 40
4.0
 49
2.0
 49
-2.0
  0
LTYPE
  2
_PHANTOMLINIE
 70
    64
  3

 72
    65
 73
     6
 40
21.0
 49
10.0
 49
-2.0
 49
3.0
 49
-1.0
 49
3.0
 49
-2.0
  0
LTYPE
  2
_BRUCHLINIE_1
 70
    64
  3

 72
    65
 73
     0
 40
0.0
  0
LTYPE
  2
_BRUCHLINIE_2
 70
    64
  3

 72
    65
 73
     0
 40
0.0
  0
LTYPE
  2
SLDUSER-DASHED0
 70
    64
  3

 72
    65
 73
     2
 40
1.905
 49
1.27
 49
-0.635
  0
ENDTAB
  0
TABLE
  2
LAYER
 70
     8
  0
LAYER
  2
0
 70
     0
 62
     7
  6
CONTINUOUS
  0
LAYER
  2
HINTERGRUND
 70
     0
 62
     7
  6
CONTINUOUS
  0
LAYER
  2
STANDARDEBENE
 70
     0
 62
     7
  6
CONTINUOUS
  0
LAYER
  2
ARMATUR
 70
     0
 62
     7
  6
CONTINUOUS
  0
LAYER
  2
ACHSEN
 70
     0
 62
     7
  6
CONTINUOUS
  0
LAYER
  2
TEXT
 70
     0
 62
     7
  6
CONTINUOUS
  0
LAYER
  2
BEMASSUNG
 70
     0
 62
     7
  6
CONTINUOUS
  0
LAYER
  2
WAND
 70
     0
 62
     7
  6
CONTINUOUS
  0
ENDTAB
  0
TABLE
  2
STYLE
 70
     1
  0
STYLE
  2
STANDARD
 70
     0
 40
0.0
 41
1.0
 50
0.0
 71
     0
 42
0.0
  3
txt
  4

  0
ENDTAB
  0
TABLE
  2
VIEW
 70
     0
  0
ENDTAB
  0
TABLE
  2
UCS
 70
     1
  0
UCS
  2
ISODRAW_6_1
 70
     0
 10
0.0
 20
0.0
 30
0.0
 11
0.0
 21
1.0
 31
0.0
 12
0.0
 22
0.0
 32
1.0
  0
ENDTAB
  0
TABLE
  2
APPID
 70
     1
  0
APPID
  2
ACAD
 70
     0
  0
ENDTAB
  0
TABLE
  2
DIMSTYLE
 70
     1
  0
DIMSTYLE
  2
STANDARD
 70
     0
  3

  4

  5

  6

  7

 40
1.0
 41
0.18
 42
0.0625
 43
0.38
 44
0.18
 45
0.0
 46
0.0
 47
0.0
 48
0.0
 71
     0
 72
     0
 73
     1
 74
     1
 75
     0
 76
     0
 77
     0
 78
     0
140
0.18
141
0.09
142
0.0
143
25.4
144
1.0
145
0.0
146
1.0
147
0.09
170
     0
171
     2
172
     0
173
     0
174
     0
175
     0
176
     0
177
     0
178
     0
  0
ENDTAB
  0
ENDSEC
  0
SECTION
  2
BLOCKS
  0
ENDSEC
  0
SECTION
  2
ENTITIES
  0
TEXT
  8
HINTERGRUND
  5
DB
 10
227.468246
 20
9.359921
 30
0.0
 40
7.055555
  1
36 515 979-FF
  0
POLYLINE
  8
STANDARDEBENE
  6
_DURCHGEHEND
 62
    10
  5
DC
 66
     1
 10
0.0
 20
0.0
 30
0.0
 75
     5
  0
VERTEX
  8
0
  5
DD
 10
135.648834
 20
-29.250629
 30
0.0
  0
VERTEX
  8
0
  5
DE
 10
135.648834
 20
-29.250629
 30
0.0
  0
SEQEND
  8
0
  5
DF
  0
POLYLINE
  8
STANDARDEBENE
  6
_DURCHGEHEND
 62
    10
  5
E0
 66
     1
 10
0.0
 20
0.0
 30
0.0
 75
     5
  0
VERTEX
  8
0
  5
E1
 10
283.435364
 20
-27.589153
 30
0.0
  0
VERTEX
  8
0
  5
E2
 10
283.435364
 20
-27.589153
 30
0.0
  0
SEQEND
  8
0
  5
E3
  0
POLYLINE
  8
STANDARDEBENE
  6
_DURCHGEHEND
 62
    10
  5
E4
 66
     1
 10
0.0
 20
0.0
 30
0.0
 75
     5
  0
VERTEX
  8
0
  5
E5
 10
60.224022
 20
-56.265152
 30
0.0
  0
VERTEX
  8
0
  5
E6
 10
60.224022
 20
-56.265152
 30
0.0
  0
SEQEND
  8
0
  5
E7
  0
POLYLINE
  8
STANDARDEBENE
  6
_DURCHGEHEND
 62
    10
  5
E8
 66
     1
 10
0.0
 20
0.0
 30
0.0
 75
     5
  0
VERTEX
  8
0
  5
E9
 10
70.460075
 20
-111.973839
 30
0.0
  0
VERTEX
  8
0
  5
EA
 10
70.460075
 20
-111.973839
 30
0.0
  0
SEQEND
  8
0
  5
EB
  0
POLYLINE
  8
STANDARDEBENE
  6
_DURCHGEHEND
 62
    10
  5
EC
 66
     1
 10
0.0
 20
0.0
 30
0.0
 75
     5
  0
VERTEX
  8
0
  5
ED
 10
303.84375
 20
72.605705
 30
0.0
  0
VERTEX
  8
0
  5
EE
 10
303.84375
 20
72.605705
 30
0.0
  0
SEQEND
  8
0
  5
EF
  0
POLYLINE
  8
STANDARDEBENE
  6
_DURCHGEHEND
 62
    10
  5
F0
 66
     1
 10
0.0
 20
0.0
 30
0.0
 75
     5
  0
VERTEX
  8
0
  5
F1
 10
512.562683
 20
20.388626
 30
0.0
  0
VERTEX
  8
0
  5
F2
 10
512.562683
 20
20.388626
 30
0.0
  0
SEQEND
  8
0
  5
F3
  0
ARC
  8
ARMATUR
  6
DURCHGEHEND
 62
     1
  5
F4
 10
129.340744
 20
123.06266
 30
0.0
 40
0.199997
 50
0.0
 51
90.0
  0
ARC
  8
ARMATUR
  6
DURCHGEHEND
 62
     1
  5
F5
 10
129.340744
 20
93.512665
 30
0.0
 40
0.199997
 50
270.0
 51
360.0
  0
LINE
  8
ARMATUR
  6
DURCHGEHEND
 62
     1
  5
F6
 10
129.540756
 20
93.512665
 30
0.0
 11
129.540756
 21
123.06266
 31
0.0
  0
CIRCLE
  8
ARMATUR
  6
DURCHGEHEND
 62
     1
  5
F7
 10
111.254547
 20
101.600044
 30
0.0
 40
0.7873
  0
CIRCLE
  8
ARMATUR
  6
DURCHGEHEND
 62
     1
  5
F8
 10
111.254547
 20
104.95005
 30
0.0
 40
0.7873
  0
CIRCLE
  8
ARMATUR
  6
DURCHGEHEND
 62
     1
  5
F9
 10
111.254547
 20
108.300041
 30
0.0
 40
0.7873
  0
CIRCLE
  8
ARMATUR
  6
DURCHGEHEND
 62
     1
  5
FA
 10
111.254547
 20
111.650047
 30
0.0
 40
0.7873
  0
CIRCLE
  8
ARMATUR
  6
DURCHGEHEND
 62
     1
  5
FB
 10
117.947899
 20
101.600044
 30
0.0
 40
0.7873
  0
CIRCLE
  8
ARMATUR
  6
DURCHGEHEND
 62
     1
  5
FC
 10
117.947899
 20
104.950043
 30
0.0
 40
0.7873
  0
CIRCLE
  8
ARMATUR
  6
DURCHGEHEND
 62
     1
  5
FD
 10
117.947899
 20
108.300041
 30
0.0
 40
0.7873
  0
CIRCLE
  8
ARMATUR
  6
DURCHGEHEND
 62
     1
  5
FE
 10
117.947899
 20
111.650047
 30
0.0
 40
0.7873
  0
CIRCLE
  8
ARMATUR
  6
DURCHGEHEND
 62
     1
  5
FF
 10
107.907875
 20
101.600044
 30
0.0
 40
0.7873
  0
CIRCLE
  8
ARMATUR
  6
DURCHGEHEND
 62
     1
  5
100
 10
107.907875
 20
104.950043
 30
0.0
 40
0.7873
  0
CIRCLE
  8
ARMATUR
  6
DURCHGEHEND
 62
     1
  5
101
 10
107.907875
 20
108.300041
 30
0.0
 40
0.7873
  0
CIRCLE
  8
ARMATUR
  6
DURCHGEHEND
 62
     1
  5
102
 10
107.907875
 20
111.650047
 30
0.0
 40
0.7873
  0
CIRCLE
  8
ARMATUR
  6
DURCHGEHEND
 62
     1
  5
103
 10
121.294579
 20
115.000046
 30
0.0
 40
0.7873
  0
CIRCLE
  8
ARMATUR
  6
DURCHGEHEND
 62
     1
  5
104
 10
117.947899
 20
115.000046
 30
0.0
 40
0.7873
  0
CIRCLE
  8
ARMATUR
  6
DURCHGEHEND
 62
     1
  5
105
 10
114.601227
 20
115.000046
 30
0.0
 40
0.7873
  0
CIRCLE
  8
ARMATUR
  6
DURCHGEHEND
 62
     1
  5
106
 10
111.254547
 20
115.000046
 30
0.0
 40
0.7873
  0
CIRCLE
  8
ARMATUR
  6
DURCHGEHEND
 62
     1
  5
107
 10
107.907875
 20
115.000046
 30
0.0
 40
0.7873
  0
CIRCLE
  8
ARMATUR
  6
DURCHGEHEND
 62
     1
  5
108
 10
121.294579
 20
111.650047
 30
0.0
 40
0.7873
  0
CIRCLE
  8
ARMATUR
  6
DURCHGEHEND
 62
     1
  5
109
 10
121.294579
 20
108.300041
 30
0.0
 40
0.7873
  0
CIRCLE
  8
ARMATUR
  6
DURCHGEHEND
 62
     1
  5
10A
 10
121.294579
 20
104.950043
 30
0.0
 40
0.7873
  0
CIRCLE
  8
ARMATUR
  6
DURCHGEHEND
 62
     1
  5
10B
 10
121.294579
 20
101.600044
 30
0.0
 40
0.7873
  0
CIRCLE
  8
ARMATUR
  6
DURCHGEHEND
 62
     1
  5
10C
 10
114.601227
 20
111.650047
 30
0.0
 40
0.7873
  0
CIRCLE
  8
ARMATUR
  6
DURCHGEHEND
 62
     1
  5
10D
 10
114.601227
 20
108.300041
 30
0.0
 40
0.7873
  0
CIRCLE
  8
ARMATUR
  6
DURCHGEHEND
 62
     1
  5
10E
 10
114.601227
 20
104.95005
 30
0.0
 40
0.7873
  0
CIRCLE
  8
ARMATUR
  6
DURCHGEHEND
 62
     1
  5
10F
 10
114.601227
 20
101.600044
 30
0.0
 40
0.7873
  0
LINE
  8
ARMATUR
  6
DURCHGEHEND
 62
     1
  5
110
 10
129.340744
 20
93.31266
 30
0.0
 11
99.820068
 21
93.31266
 31
0.0
  0
LINE
  8
ARMATUR
  6
DURCHGEHEND
 62
     1
  5
111
 10
99.820068
 20
123.262657
 30
0.0
 11
129.340744
 21
123.262657
 31
0.0
  0
LINE
  8
ARMATUR
  6
DURCHGEHEND
 62
     1
  5
112
 10
99.72654
 20
123.262657
 30
0.0
 11
99.820068
 21
123.262657
 31
0.0
  0
ARC
  8
ARMATUR
  6
DURCHGEHEND
 62
     1
  5
113
 10
99.726639
 20
123.062759
 30
0.0
 40
0.199905
 50
90.028999
 51
180.029007
  0
LINE
  8
ARMATUR
  6
DURCHGEHEND
 62
     1
  5
114
 10
99.820068
 20
93.31266
 30
0.0
 11
99.72654
 21
93.31266
 31
0.0
  0
ARC
  8
ARMATUR
  6
DURCHGEHEND
 62
     1
  5
115
 10
99.726639
 20
93.512566
 30
0.0
 40
0.199905
 50
179.970993
 51
269.971008
  0
LINE
  8
ARMATUR
  6
DURCHGEHEND
 62
     1
  5
116
 10
99.526741
 20
93.512665
 30
0.0
 11
99.526741
 21
123.06266
 31
0.0
  0
ARC
  8
ARMATUR
  6
DURCHGEHEND
 62
     1
  5
117
 10
107.8834
 20
104.950157
 30
0.0
 40
0.787498
 50
0.0
 51
89.959
  0
ARC
  8
ARMATUR
  6
DURCHGEHEND
 62
     1
  5
118
 10
107.8834
 20
104.950157
 30
0.0
 40
0.787498
 50
270.040009
 51
360.0
  0
ARC
  8
ARMATUR
  6
DURCHGEHEND
 62
     1
  5
119
 10
107.8834
 20
111.650162
 30
0.0
 40
0.787498
 50
0.0
 51
89.959
  0
ARC
  8
ARMATUR
  6
DURCHGEHEND
 62
     1
  5
11A
 10
107.8834
 20
111.650162
 30
0.0
 40
0.787498
 50
270.040009
 51
360.0
  0
ARC
  8
ARMATUR
  6
DURCHGEHEND
 62
     1
  5
11B
 10
107.8834
 20
101.600166
 30
0.0
 40
0.787498
 50
0.0
 51
89.959
  0
ARC
  8
ARMATUR
  6
DURCHGEHEND
 62
     1
  5
11C
 10
107.8834
 20
101.600166
 30
0.0
 40
0.787498
 50
270.040009
 51
360.0
  0
ARC
  8
ARMATUR
  6
DURCHGEHEND
 62
     1
  5
11D
 10
107.8834
 20
108.300163
 30
0.0
 40
0.787498
 50
0.0
 51
89.959
  0
ARC
  8
ARMATUR
  6
DURCHGEHEND
 62
     1
  5
11E
 10
107.8834
 20
108.300163
 30
0.0
 40
0.787498
 50
270.040009
 51
360.0
  0
ARC
  8
ARMATUR
  6
DURCHGEHEND
 62
     1
  5
11F
 10
107.8834
 20
115.00016
 30
0.0
 40
0.787498
 50
0.0
 51
89.959
  0
ARC
  8
ARMATUR
  6
DURCHGEHEND
 62
     1
  5
120
 10
107.8834
 20
115.00016
 30
0.0
 40
0.787498
 50
270.040009
 51
360.0
  0
ARC
  8
ARMATUR
  6
DURCHGEHEND
 62
     1
  5
121
 10
111.230072
 20
101.600166
 30
0.0
 40
0.787498
 50
0.0
 51
89.959
  0
ARC
  8
ARMATUR
  6
DURCHGEHEND
 62
     1
  5
122
 10
111.230072
 20
101.600166
 30
0.0
 40
0.787498
 50
270.040009
 51
360.0
  0
ARC
  8
ARMATUR
  6
DURCHGEHEND
 62
     1
  5
123
 10
111.230072
 20
111.650162
 30
0.0
 40
0.787498
 50
0.0
 51
89.959
  0
ARC
  8
ARMATUR
  6
DURCHGEHEND
 62
     1
  5
124
 10
111.230072
 20
111.650162
 30
0.0
 40
0.787498
 50
270.040009
 51
360.0
  0
ARC
  8
ARMATUR
  6
DURCHGEHEND
 62
     1
  5
125
 10
111.230072
 20
104.950157
 30
0.0
 40
0.787498
 50
0.0
 51
89.959
  0
ARC
  8
ARMATUR
  6
DURCHGEHEND
 62
     1
  5
126
 10
111.230072
 20
104.950157
 30
0.0
 40
0.787498
 50
270.040009
 51
360.0
  0
ARC
  8
ARMATUR
  6
DURCHGEHEND
 62
     1
  5
127
 10
111.230072
 20
108.300163
 30
0.0
 40
0.787498
 50
0.0
 51
89.959
  0
ARC
  8
ARMATUR
  6
DURCHGEHEND
 62
     1
  5
128
 10
111.230072
 20
108.300163
 30
0.0
 40
0.787498
 50
270.040009
 51
360.0
  0
ARC
  8
ARMATUR
  6
DURCHGEHEND
 62
     1
  5
129
 10
111.230072
 20
115.00016
 30
0.0
 40
0.787498
 50
0.0
 51
89.959
  0
ARC
  8
ARMATUR
  6
DURCHGEHEND
 62
     1
  5
12A
 10
111.230072
 20
115.00016
 30
0.0
 40
0.787498
 50
270.040009
 51
360.0
  0
ARC
  8
ARMATUR
  6
DURCHGEHEND
 62
     1
  5
12B
 10
114.576752
 20
111.650162
 30
0.0
 40
0.787498
 50
0.0
 51
89.959
  0
ARC
  8
ARMATUR
  6
DURCHGEHEND
 62
     1
  5
12C
 10
114.576752
 20
111.650162
 30
0.0
 40
0.787498
 50
270.040009
 51
360.0
  0
ARC
  8
ARMATUR
  6
DURCHGEHEND
 62
     1
  5
12D
 10
114.576752
 20
108.300163
 30
0.0
 40
0.787498
 50
0.0
 51
89.959
  0
ARC
  8
ARMATUR
  6
DURCHGEHEND
 62
     1
  5
12E
 10
114.576752
 20
108.300163
 30
0.0
 40
0.787498
 50
270.040009
 51
360.0
  0
ARC
  8
ARMATUR
  6
DURCHGEHEND
 62
     1
  5
12F
 10
114.576752
 20
101.600166
 30
0.0
 40
0.787498
 50
0.0
 51
89.959
  0
ARC
  8
ARMATUR
  6
DURCHGEHEND
 62
     1
  5
130
 10
114.576752
 20
101.600166
 30
0.0
 40
0.787498
 50
270.040009
 51
360.0
  0
ARC
  8
ARMATUR
  6
DURCHGEHEND
 62
     1
  5
131
 10
114.576752
 20
104.950157
 30
0.0
 40
0.787498
 50
0.0
 51
89.959
  0
ARC
  8
ARMATUR
  6
DURCHGEHEND
 62
     1
  5
132
 10
114.576752
 20
104.950157
 30
0.0
 40
0.787498
 50
270.040009
 51
360.0
  0
ARC
  8
ARMATUR
  6
DURCHGEHEND
 62
     1
  5
133
 10
114.576752
 20
115.00016
 30
0.0
 40
0.787498
 50
0.0
 51
89.959
  0
ARC
  8
ARMATUR
  6
DURCHGEHEND
 62
     1
  5
134
 10
114.576752
 20
115.00016
 30
0.0
 40
0.787498
 50
270.040009
 51
360.0
  0
ARC
  8
ARMATUR
  6
DURCHGEHEND
 62
     1
  5
135
 10
117.923424
 20
108.300163
 30
0.0
 40
0.787498
 50
0.0
 51
89.959
  0
ARC
  8
ARMATUR
  6
DURCHGEHEND
 62
     1
  5
136
 10
117.923424
 20
108.300163
 30
0.0
 40
0.787498
 50
270.040009
 51
360.0
  0
ARC
  8
ARMATUR
  6
DURCHGEHEND
 62
     1
  5
137
 10
117.923424
 20
104.950157
 30
0.0
 40
0.787498
 50
0.0
 51
89.959
  0
ARC
  8
ARMATUR
  6
DURCHGEHEND
 62
     1
  5
138
 10
117.923424
 20
104.950157
 30
0.0
 40
0.787498
 50
270.040009
 51
360.0
  0
ARC
  8
ARMATUR
  6
DURCHGEHEND
 62
     1
  5
139
 10
117.923424
 20
101.600166
 30
0.0
 40
0.787498
 50
0.0
 51
89.959
  0
ARC
  8
ARMATUR
  6
DURCHGEHEND
 62
     1
  5
13A
 10
117.923424
 20
101.600166
 30
0.0
 40
0.787498
 50
270.040009
 51
360.0
  0
ARC
  8
ARMATUR
  6
DURCHGEHEND
 62
     1
  5
13B
 10
117.923424
 20
115.00016
 30
0.0
 40
0.787498
 50
0.0
 51
89.959
  0
ARC
  8
ARMATUR
  6
DURCHGEHEND
 62
     1
  5
13C
 10
117.923424
 20
115.00016
 30
0.0
 40
0.787498
 50
270.040009
 51
360.0
  0
ARC
  8
ARMATUR
  6
DURCHGEHEND
 62
     1
  5
13D
 10
117.923424
 20
111.650162
 30
0.0
 40
0.787498
 50
0.0
 51
89.959
  0
ARC
  8
ARMATUR
  6
DURCHGEHEND
 62
     1
  5
13E
 10
117.923424
 20
111.650162
 30
0.0
 40
0.787498
 50
270.040009
 51
360.0
  0
ARC
  8
ARMATUR
  6
DURCHGEHEND
 62
     1
  5
13F
 10
121.270103
 20
104.950157
 30
0.0
 40
0.787498
 50
0.0
 51
89.959
  0
ARC
  8
ARMATUR
  6
DURCHGEHEND
 62
     1
  5
140
 10
121.270103
 20
104.950157
 30
0.0
 40
0.787498
 50
270.040009
 51
360.0
  0
ARC
  8
ARMATUR
  6
DURCHGEHEND
 62
     1
  5
141
 10
121.270103
 20
115.00016
 30
0.0
 40
0.787498
 50
0.0
 51
89.959
  0
ARC
  8
ARMATUR
  6
DURCHGEHEND
 62
     1
  5
142
 10
121.270103
 20
115.00016
 30
0.0
 40
0.787498
 50
270.040009
 51
360.0
  0
ARC
  8
ARMATUR
  6
DURCHGEHEND
 62
     1
  5
143
 10
121.270103
 20
108.300163
 30
0.0
 40
0.787498
 50
0.0
 51
89.959
  0
ARC
  8
ARMATUR
  6
DURCHGEHEND
 62
     1
  5
144
 10
121.270103
 20
108.300163
 30
0.0
 40
0.787498
 50
270.040009
 51
360.0
  0
ARC
  8
ARMATUR
  6
DURCHGEHEND
 62
     1
  5
145
 10
121.270103
 20
111.650162
 30
0.0
 40
0.787498
 50
0.0
 51
89.959
  0
ARC
  8
ARMATUR
  6
DURCHGEHEND
 62
     1
  5
146
 10
121.270103
 20
111.650162
 30
0.0
 40
0.787498
 50
270.040009
 51
360.0
  0
ARC
  8
ARMATUR
  6
DURCHGEHEND
 62
     1
  5
147
 10
121.270103
 20
101.600166
 30
0.0
 40
0.787498
 50
0.0
 51
89.959
  0
ARC
  8
ARMATUR
  6
DURCHGEHEND
 62
     1
  5
148
 10
121.270103
 20
101.600166
 30
0.0
 40
0.787498
 50
270.040009
 51
360.0
  0
LINE
  8
ARMATUR
  6
DURCHGEHEND
 62
     1
  5
149
 10
115.111259
 20
93.31266
 30
0.0
 11
115.12796
 21
93.31266
 31
0.0
  0
CIRCLE
  8
ARMATUR
  6
DURCHGEHEND
 62
     1
  5
14A
 10
107.901428
 20
101.587631
 30
0.0
 40
0.131203
  0
CIRCLE
  8
ARMATUR
  6
DURCHGEHEND
 62
     1
  5
14B
 10
107.898903
 20
101.587547
 30
0.0
 40
0.686356
  0
CIRCLE
  8
ARMATUR
  6
DURCHGEHEND
 62
     1
  5
14C
 10
107.901428
 20
104.93763
 30
0.0
 40
0.131203
  0
CIRCLE
  8
ARMATUR
  6
DURCHGEHEND
 62
     1
  5
14D
 10
107.898903
 20
104.937546
 30
0.0
 40
0.686356
  0
CIRCLE
  8
ARMATUR
  6
DURCHGEHEND
 62
     1
  5
14E
 10
107.901428
 20
108.287628
 30
0.0
 40
0.131203
  0
CIRCLE
  8
ARMATUR
  6
DURCHGEHEND
 62
     1
  5
14F
 10
107.898903
 20
108.287544
 30
0.0
 40
0.686356
  0
CIRCLE
  8
ARMATUR
  6
DURCHGEHEND
 62
     1
  5
150
 10
107.901428
 20
111.637627
 30
0.0
 40
0.131203
  0
CIRCLE
  8
ARMATUR
  6
DURCHGEHEND
 62
     1
  5
151
 10
107.898903
 20
111.637543
 30
0.0
 40
0.686356
  0
CIRCLE
  8
ARMATUR
  6
DURCHGEHEND
 62
     1
  5
152
 10
107.901428
 20
114.987633
 30
0.0
 40
0.131203
  0
CIRCLE
  8
ARMATUR
  6
DURCHGEHEND
 62
     1
  5
153
 10
107.898903
 20
114.987541
 30
0.0
 40
0.686356
  0
ARC
  8
ARMATUR
  6
DURCHGEHEND
 62
     1
  5
154
 10
107.890282
 20
101.587662
 30
0.0
 40
0.131248
 50
0.0
 51
87.527
  0
ARC
  8
ARMATUR
  6
DURCHGEHEND
 62
     1
  5
155
 10
107.890282
 20
101.587662
 30
0.0
 40
0.131248
 50
272.477997
 51
360.0
  0
ARC
  8
ARMATUR
  6
DURCHGEHEND
 62
     1
  5
156
 10
107.890282
 20
104.93766
 30
0.0
 40
0.131248
 50
0.0
 51
87.527
  0
ARC
  8
ARMATUR
  6
DURCHGEHEND
 62
     1
  5
157
 10
107.890282
 20
104.93766
 30
0.0
 40
0.131248
 50
272.477997
 51
360.0
  0
ARC
  8
ARMATUR
  6
DURCHGEHEND
 62
     1
  5
158
 10
107.890282
 20
108.287666
 30
0.0
 40
0.131248
 50
0.0
 51
87.527
  0
ARC
  8
ARMATUR
  6
DURCHGEHEND
 62
     1
  5
159
 10
107.890282
 20
108.287666
 30
0.0
 40
0.131248
 50
272.477997
 51
360.0
  0
ARC
  8
ARMATUR
  6
DURCHGEHEND
 62
     1
  5
15A
 10
107.890282
 20
111.637657
 30
0.0
 40
0.131248
 50
0.0
 51
87.527
  0
ARC
  8
ARMATUR
  6
DURCHGEHEND
 62
     1
  5
15B
 10
107.890282
 20
111.637657
 30
0.0
 40
0.131248
 50
272.477997
 51
360.0
  0
ARC
  8
ARMATUR
  6
DURCHGEHEND
 62
     1
  5
15C
 10
107.890282
 20
114.987663
 30
0.0
 40
0.131248
 50
0.0
 51
87.527
  0
ARC
  8
ARMATUR
  6
DURCHGEHEND
 62
     1
  5
15D
 10
107.890282
 20
114.987663
 30
0.0
 40
0.131248
 50
272.477997
 51
360.0
  0
CIRCLE
  8
ARMATUR
  6
DURCHGEHEND
 62
     1
  5
15E
 10
107.896744
 20
101.587784
 30
0.0
 40
0.731949
  0
CIRCLE
  8
ARMATUR
  6
DURCHGEHEND
 62
     1
  5
15F
 10
107.896744
 20
104.937782
 30
0.0
 40
0.731949
  0
CIRCLE
  8
ARMATUR
  6
DURCHGEHEND
 62
     1
  5
160
 10
107.896744
 20
108.287781
 30
0.0
 40
0.731949
  0
CIRCLE
  8
ARMATUR
  6
DURCHGEHEND
 62
     1
  5
161
 10
107.896744
 20
111.637779
 30
0.0
 40
0.731949
  0
CIRCLE
  8
ARMATUR
  6
DURCHGEHEND
 62
     1
  5
162
 10
107.896744
 20
114.987778
 30
0.0
 40
0.731949
  0
CIRCLE
  8
ARMATUR
  6
DURCHGEHEND
 62
     1
  5
163
 10
111.248108
 20
104.93763
 30
0.0
 40
0.131195
  0
CIRCLE
  8
ARMATUR
  6
DURCHGEHEND
 62
     1
  5
164
 10
111.245575
 20
104.937546
 30
0.0
 40
0.686356
  0
CIRCLE
  8
ARMATUR
  6
DURCHGEHEND
 62
     1
  5
165
 10
111.248108
 20
101.587631
 30
0.0
 40
0.131195
  0
CIRCLE
  8
ARMATUR
  6
DURCHGEHEND
 62
     1
  5
166
 10
111.245575
 20
101.587547
 30
0.0
 40
0.686356
  0
CIRCLE
  8
ARMATUR
  6
DURCHGEHEND
 62
     1
  5
167
 10
111.248108
 20
108.287628
 30
0.0
 40
0.131195
  0
CIRCLE
  8
ARMATUR
  6
DURCHGEHEND
 62
     1
  5
168
 10
111.245575
 20
108.287544
 30
0.0
 40
0.686356
  0
CIRCLE
  8
ARMATUR
  6
DURCHGEHEND
 62
     1
  5
169
 10
111.248108
 20
111.637627
 30
0.0
 40
0.131195
  0
CIRCLE
  8
ARMATUR
  6
DURCHGEHEND
 62
     1
  5
16A
 10
111.245575
 20
111.637543
 30
0.0
 40
0.686356
  0
CIRCLE
  8
ARMATUR
  6
DURCHGEHEND
 62
     1
  5
16B
 10
111.248108
 20
114.987633
 30
0.0
 40
0.131195
  0
CIRCLE
  8
ARMATUR
  6
DURCHGEHEND
 62
     1
  5
16C
 10
111.245575
 20
114.987541
 30
0.0
 40
0.686356
  0
ARC
  8
ARMATUR
  6
DURCHGEHEND
 62
     1
  5
16D
 10
111.236961
 20
101.587662
 30
0.0
 40
0.131248
 50
0.0
 51
87.527
  0
ARC
  8
ARMATUR
  6
DURCHGEHEND
 62
     1
  5
16E
 10
111.236961
 20
101.587662
 30
0.0
 40
0.131248
 50
272.477997
 51
360.0
  0
ARC
  8
ARMATUR
  6
DURCHGEHEND
 62
     1
  5
16F
 10
111.236961
 20
104.93766
 30
0.0
 40
0.131248
 50
0.0
 51
87.527
  0
ARC
  8
ARMATUR
  6
DURCHGEHEND
 62
     1
  5
170
 10
111.236961
 20
104.93766
 30
0.0
 40
0.131248
 50
272.477997
 51
360.0
  0
ARC
  8
ARMATUR
  6
DURCHGEHEND
 62
     1
  5
171
 10
111.236961
 20
108.287666
 30
0.0
 40
0.131248
 50
0.0
 51
87.527
  0
ARC
  8
ARMATUR
  6
DURCHGEHEND
 62
     1
  5
172
 10
111.236961
 20
108.287666
 30
0.0
 40
0.131248
 50
272.477997
 51
360.0
  0
ARC
  8
ARMATUR
  6
DURCHGEHEND
 62
     1
  5
173
 10
111.236961
 20
111.637657
 30
0.0
 40
0.131248
 50
0.0
 51
87.527
  0
ARC
  8
ARMATUR
  6
DURCHGEHEND
 62
     1
  5
174
 10
111.236961
 20
111.637657
 30
0.0
 40
0.131248
 50
272.477997
 51
360.0
  0
ARC
  8
ARMATUR
  6
DURCHGEHEND
 62
     1
  5
175
 10
111.236961
 20
114.987663
 30
0.0
 40
0.131248
 50
0.0
 51
87.527
  0
ARC
  8
ARMATUR
  6
DURCHGEHEND
 62
     1
  5
176
 10
111.236961
 20
114.987663
 30
0.0
 40
0.131248
 50
272.477997
 51
360.0
  0
CIRCLE
  8
ARMATUR
  6
DURCHGEHEND
 62
     1
  5
177
 10
111.243416
 20
101.587784
 30
0.0
 40
0.731949
  0
CIRCLE
  8
ARMATUR
  6
DURCHGEHEND
 62
     1
  5
178
 10
111.243416
 20
104.937782
 30
0.0
 40
0.731949
  0
CIRCLE
  8
ARMATUR
  6
DURCHGEHEND
 62
     1
  5
179
 10
111.243416
 20
108.287781
 30
0.0
 40
0.731949
  0
CIRCLE
  8
ARMATUR
  6
DURCHGEHEND
 62
     1
  5
17A
 10
111.243416
 20
111.637779
 30
0.0
 40
0.731949
  0
CIRCLE
  8
ARMATUR
  6
DURCHGEHEND
 62
     1
  5
17B
 10
111.243416
 20
114.987778
 30
0.0
 40
0.731949
  0
CIRCLE
  8
ARMATUR
  6
DURCHGEHEND
 62
     1
  5
17C
 10
114.59478
 20
104.93763
 30
0.0
 40
0.131203
  0
CIRCLE
  8
ARMATUR
  6
DURCHGEHEND
 62
     1
  5
17D
 10
114.592255
 20
104.937546
 30
0.0
 40
0.686348
  0
CIRCLE
  8
ARMATUR
  6
DURCHGEHEND
 62
     1
  5
17E
 10
114.59478
 20
101.587631
 30
0.0
 40
0.131203
  0
CIRCLE
  8
ARMATUR
  6
DURCHGEHEND
 62
     1
  5
17F
 10
114.592255
 20
101.587547
 30
0.0
 40
0.686348
  0
CIRCLE
  8
ARMATUR
  6
DURCHGEHEND
 62
     1
  5
180
 10
114.59478
 20
108.287628
 30
0.0
 40
0.131203
  0
CIRCLE
  8
ARMATUR
  6
DURCHGEHEND
 62
     1
  5
181
 10
114.592255
 20
108.287544
 30
0.0
 40
0.686348
  0
CIRCLE
  8
ARMATUR
  6
DURCHGEHEND
 62
     1
  5
182
 10
114.59478
 20
111.637627
 30
0.0
 40
0.131203
  0
CIRCLE
  8
ARMATUR
  6
DURCHGEHEND
 62
     1
  5
183
 10
114.592255
 20
111.637543
 30
0.0
 40
0.686348
  0
CIRCLE
  8
ARMATUR
  6
DURCHGEHEND
 62
     1
  5
184
 10
114.59478
 20
114.987633
 30
0.0
 40
0.131203
  0
CIRCLE
  8
ARMATUR
  6
DURCHGEHEND
 62
     1
  5
185
 10
114.592255
 20
114.987541
 30
0.0
 40
0.686348
  0
ARC
  8
ARMATUR
  6
DURCHGEHEND
 62
     1
  5
186
 10
114.583633
 20
101.587662
 30
0.0
 40
0.131248
 50
0.0
 51
87.527
  0
ARC
  8
ARMATUR
  6
DURCHGEHEND
 62
     1
  5
187
 10
114.583633
 20
101.587662
 30
0.0
 40
0.131248
 50
272.477997
 51
360.0
  0
ARC
  8
ARMATUR
  6
DURCHGEHEND
 62
     1
  5
188
 10
114.583633
 20
104.93766
 30
0.0
 40
0.131248
 50
0.0
 51
87.527
  0
ARC
  8
ARMATUR
  6
DURCHGEHEND
 62
     1
  5
189
 10
114.583633
 20
104.93766
 30
0.0
 40
0.131248
 50
272.477997
 51
360.0
  0
ARC
  8
ARMATUR
  6
DURCHGEHEND
 62
     1
  5
18A
 10
114.583633
 20
108.287666
 30
0.0
 40
0.131248
 50
0.0
 51
87.527
  0
ARC
  8
ARMATUR
  6
DURCHGEHEND
 62
     1
  5
18B
 10
114.583633
 20
108.287666
 30
0.0
 40
0.131248
 50
272.477997
 51
360.0
  0
ARC
  8
ARMATUR
  6
DURCHGEHEND
 62
     1
  5
18C
 10
114.583633
 20
111.637657
 30
0.0
 40
0.131248
 50
0.0
 51
87.527
  0
ARC
  8
ARMATUR
  6
DURCHGEHEND
 62
     1
  5
18D
 10
114.583633
 20
111.637657
 30
0.0
 40
0.131248
 50
272.477997
 51
360.0
  0
ARC
  8
ARMATUR
  6
DURCHGEHEND
 62
     1
  5
18E
 10
114.583633
 20
114.987663
 30
0.0
 40
0.131248
 50
0.0
 51
87.527
  0
ARC
  8
ARMATUR
  6
DURCHGEHEND
 62
     1
  5
18F
 10
114.583633
 20
114.987663
 30
0.0
 40
0.131248
 50
272.477997
 51
360.0
  0
CIRCLE
  8
ARMATUR
  6
DURCHGEHEND
 62
     1
  5
190
 10
114.590096
 20
101.587784
 30
0.0
 40
0.731949
  0
CIRCLE
  8
ARMATUR
  6
DURCHGEHEND
 62
     1
  5
191
 10
114.590096
 20
104.937782
 30
0.0
 40
0.731949
  0
CIRCLE
  8
ARMATUR
  6
DURCHGEHEND
 62
     1
  5
192
 10
114.590096
 20
108.287781
 30
0.0
 40
0.731949
  0
CIRCLE
  8
ARMATUR
  6
DURCHGEHEND
 62
     1
  5
193
 10
114.590096
 20
111.637779
 30
0.0
 40
0.731949
  0
CIRCLE
  8
ARMATUR
  6
DURCHGEHEND
 62
     1
  5
194
 10
114.590096
 20
114.987778
 30
0.0
 40
0.731949
  0
CIRCLE
  8
ARMATUR
  6
DURCHGEHEND
 62
     1
  5
195
 10
117.94146
 20
104.93763
 30
0.0
 40
0.131203
  0
CIRCLE
  8
ARMATUR
  6
DURCHGEHEND
 62
     1
  5
196
 10
117.938927
 20
104.937546
 30
0.0
 40
0.686348
  0
CIRCLE
  8
ARMATUR
  6
DURCHGEHEND
 62
     1
  5
197
 10
117.94146
 20
101.587631
 30
0.0
 40
0.131203
  0
CIRCLE
  8
ARMATUR
  6
DURCHGEHEND
 62
     1
  5
198
 10
117.938927
 20
101.587547
 30
0.0
 40
0.686348
  0
CIRCLE
  8
ARMATUR
  6
DURCHGEHEND
 62
     1
  5
199
 10
117.94146
 20
108.287628
 30
0.0
 40
0.131203
  0
CIRCLE
  8
ARMATUR
  6
DURCHGEHEND
 62
     1
  5
19A
 10
117.938927
 20
108.287544
 30
0.0
 40
0.686348
  0
CIRCLE
  8
ARMATUR
  6
DURCHGEHEND
 62
     1
  5
19B
 10
117.94146
 20
111.637627
 30
0.0
 40
0.131203
  0
CIRCLE
  8
ARMATUR
  6
DURCHGEHEND
 62
     1
  5
19C
 10
117.938927
 20
111.637543
 30
0.0
 40
0.686348
  0
CIRCLE
  8
ARMATUR
  6
DURCHGEHEND
 62
     1
  5
19D
 10
117.94146
 20
114.987633
 30
0.0
 40
0.131203
  0
CIRCLE
  8
ARMATUR
  6
DURCHGEHEND
 62
     1
  5
19E
 10
117.938927
 20
114.987541
 30
0.0
 40
0.686348
  0
ARC
  8
ARMATUR
  6
DURCHGEHEND
 62
     1
  5
19F
 10
117.930313
 20
101.587662
 30
0.0
 40
0.131248
 50
0.0
 51
87.527
  0
ARC
  8
ARMATUR
  6
DURCHGEHEND
 62
     1
  5
1A0
 10
117.930313
 20
101.587662
 30
0.0
 40
0.131248
 50
272.477997
 51
360.0
  0
ARC
  8
ARMATUR
  6
DURCHGEHEND
 62
     1
  5
1A1
 10
117.930313
 20
104.93766
 30
0.0
 40
0.131248
 50
0.0
 51
87.527
  0
ARC
  8
ARMATUR
  6
DURCHGEHEND
 62
     1
  5
1A2
 10
117.930313
 20
104.93766
 30
0.0
 40
0.131248
 50
272.477997
 51
360.0
  0
ARC
  8
ARMATUR
  6
DURCHGEHEND
 62
     1
  5
1A3
 10
117.930313
 20
108.287666
 30
0.0
 40
0.131248
 50
0.0
 51
87.527
  0
ARC
  8
ARMATUR
  6
DURCHGEHEND
 62
     1
  5
1A4
 10
117.930313
 20
108.287666
 30
0.0
 40
0.131248
 50
272.477997
 51
360.0
  0
ARC
  8
ARMATUR
  6
DURCHGEHEND
 62
     1
  5
1A5
 10
117.930313
 20
111.637657
 30
0.0
 40
0.131248
 50
0.0
 51
87.527
  0
ARC
  8
ARMATUR
  6
DURCHGEHEND
 62
     1
  5
1A6
 10
117.930313
 20
111.637657
 30
0.0
 40
0.131248
 50
272.477997
 51
360.0
  0
ARC
  8
ARMATUR
  6
DURCHGEHEND
 62
     1
  5
1A7
 10
117.930313
 20
114.987663
 30
0.0
 40
0.131248
 50
0.0
 51
87.527
  0
ARC
  8
ARMATUR
  6
DURCHGEHEND
 62
     1
  5
1A8
 10
117.930313
 20
114.987663
 30
0.0
 40
0.131248
 50
272.477997
 51
360.0
  0
CIRCLE
  8
ARMATUR
  6
DURCHGEHEND
 62
     1
  5
1A9
 10
117.936768
 20
104.937782
 30
0.0
 40
0.731949
  0
CIRCLE
  8
ARMATUR
  6
DURCHGEHEND
 62
     1
  5
1AA
 10
117.936768
 20
101.587784
 30
0.0
 40
0.731949
  0
CIRCLE
  8
ARMATUR
  6
DURCHGEHEND
 62
     1
  5
1AB
 10
117.936768
 20
108.287781
 30
0.0
 40
0.731949
  0
CIRCLE
  8
ARMATUR
  6
DURCHGEHEND
 62
     1
  5
1AC
 10
117.936768
 20
111.637779
 30
0.0
 40
0.731949
  0
CIRCLE
  8
ARMATUR
  6
DURCHGEHEND
 62
     1
  5
1AD
 10
117.936768
 20
114.987778
 30
0.0
 40
0.731949
  0
CIRCLE
  8
ARMATUR
  6
DURCHGEHEND
 62
     1
  5
1AE
 10
121.288132
 20
101.587631
 30
0.0
 40
0.131203
  0
CIRCLE
  8
ARMATUR
  6
DURCHGEHEND
 62
     1
  5
1AF
 10
121.285606
 20
101.587547
 30
0.0
 40
0.686348
  0
CIRCLE
  8
ARMATUR
  6
DURCHGEHEND
 62
     1
  5
1B0
 10
121.288132
 20
104.93763
 30
0.0
 40
0.131203
  0
CIRCLE
  8
ARMATUR
  6
DURCHGEHEND
 62
     1
  5
1B1
 10
121.285606
 20
104.937546
 30
0.0
 40
0.686348
  0
CIRCLE
  8
ARMATUR
  6
DURCHGEHEND
 62
     1
  5
1B2
 10
121.288132
 20
108.287628
 30
0.0
 40
0.131203
  0
CIRCLE
  8
ARMATUR
  6
DURCHGEHEND
 62
     1
  5
1B3
 10
121.285606
 20
108.287544
 30
0.0
 40
0.686348
  0
CIRCLE
  8
ARMATUR
  6
DURCHGEHEND
 62
     1
  5
1B4
 10
121.288132
 20
111.637627
 30
0.0
 40
0.131203
  0
CIRCLE
  8
ARMATUR
  6
DURCHGEHEND
 62
     1
  5
1B5
 10
121.285606
 20
111.637543
 30
0.0
 40
0.686348
  0
CIRCLE
  8
ARMATUR
  6
DURCHGEHEND
 62
     1
  5
1B6
 10
121.288132
 20
114.987633
 30
0.0
 40
0.131203
  0
CIRCLE
  8
ARMATUR
  6
DURCHGEHEND
 62
     1
  5
1B7
 10
121.285606
 20
114.987541
 30
0.0
 40
0.686348
  0
ARC
  8
ARMATUR
  6
DURCHGEHEND
 62
     1
  5
1B8
 10
121.276985
 20
101.587662
 30
0.0
 40
0.131248
 50
0.0
 51
87.527
  0
ARC
  8
ARMATUR
  6
DURCHGEHEND
 62
     1
  5
1B9
 10
121.276985
 20
101.587662
 30
0.0
 40
0.131248
 50
272.477997
 51
360.0
  0
ARC
  8
ARMATUR
  6
DURCHGEHEND
 62
     1
  5
1BA
 10
121.276985
 20
104.93766
 30
0.0
 40
0.131248
 50
0.0
 51
87.527
  0
ARC
  8
ARMATUR
  6
DURCHGEHEND
 62
     1
  5
1BB
 10
121.276985
 20
104.93766
 30
0.0
 40
0.131248
 50
272.477997
 51
360.0
  0
ARC
  8
ARMATUR
  6
DURCHGEHEND
 62
     1
  5
1BC
 10
121.276985
 20
108.287666
 30
0.0
 40
0.131248
 50
0.0
 51
87.527
  0
ARC
  8
ARMATUR
  6
DURCHGEHEND
 62
     1
  5
1BD
 10
121.276985
 20
108.287666
 30
0.0
 40
0.131248
 50
272.477997
 51
360.0
  0
ARC
  8
ARMATUR
  6
DURCHGEHEND
 62
     1
  5
1BE
 10
121.276985
 20
111.637657
 30
0.0
 40
0.131248
 50
0.0
 51
87.527
  0
ARC
  8
ARMATUR
  6
DURCHGEHEND
 62
     1
  5
1BF
 10
121.276985
 20
111.637657
 30
0.0
 40
0.131248
 50
272.477997
 51
360.0
  0
ARC
  8
ARMATUR
  6
DURCHGEHEND
 62
     1
  5
1C0
 10
121.276985
 20
114.987663
 30
0.0
 40
0.131248
 50
0.0
 51
87.527
  0
ARC
  8
ARMATUR
  6
DURCHGEHEND
 62
     1
  5
1C1
 10
121.276985
 20
114.987663
 30
0.0
 40
0.131248
 50
272.477997
 51
360.0
  0
CIRCLE
  8
ARMATUR
  6
DURCHGEHEND
 62
     1
  5
1C2
 10
121.28344
 20
104.937782
 30
0.0
 40
0.731949
  0
CIRCLE
  8
ARMATUR
  6
DURCHGEHEND
 62
     1
  5
1C3
 10
121.28344
 20
101.587784
 30
0.0
 40
0.731949
  0
CIRCLE
  8
ARMATUR
  6
DURCHGEHEND
 62
     1
  5
1C4
 10
121.28344
 20
108.287781
 30
0.0
 40
0.731949
  0
CIRCLE
  8
ARMATUR
  6
DURCHGEHEND
 62
     1
  5
1C5
 10
121.28344
 20
111.637779
 30
0.0
 40
0.731949
  0
CIRCLE
  8
ARMATUR
  6
DURCHGEHEND
 62
     1
  5
1C6
 10
121.28344
 20
114.987778
 30
0.0
 40
0.731949
  0
ARC
  8
ARMATUR
  6
DURCHGEHEND
 62
     1
  5
1C7
 10
107.87381
 20
101.587372
 30
0.0
 40
0.759697
 50
0.0
 51
156.574997
  0
ARC
  8
ARMATUR
  6
DURCHGEHEND
 62
     1
  5
1C8
 10
107.87381
 20
101.587372
 30
0.0
 40
0.759697
 50
242.792007
 51
360.0
  0
ARC
  8
ARMATUR
  6
DURCHGEHEND
 62
     1
  5
1C9
 10
107.87381
 20
104.93737
 30
0.0
 40
0.759697
 50
0.0
 51
156.574997
  0
ARC
  8
ARMATUR
  6
DURCHGEHEND
 62
     1
  5
1CA
 10
107.87381
 20
104.93737
 30
0.0
 40
0.759697
 50
242.792007
 51
360.0
  0
ARC
  8
ARMATUR
  6
DURCHGEHEND
 62
     1
  5
1CB
 10
107.87381
 20
108.287376
 30
0.0
 40
0.75972
 50
0.0
 51
156.574997
  0
ARC
  8
ARMATUR
  6
DURCHGEHEND
 62
     1
  5
1CC
 10
107.87381
 20
108.287376
 30
0.0
 40
0.75972
 50
242.792007
 51
360.0
  0
ARC
  8
ARMATUR
  6
DURCHGEHEND
 62
     1
  5
1CD
 10
107.87381
 20
111.637375
 30
0.0
 40
0.759697
 50
0.0
 51
156.574997
  0
ARC
  8
ARMATUR
  6
DURCHGEHEND
 62
     1
  5
1CE
 10
107.87381
 20
111.637375
 30
0.0
 40
0.759697
 50
242.792007
 51
360.0
  0
ARC
  8
ARMATUR
  6
DURCHGEHEND
 62
     1
  5
1CF
 10
107.87381
 20
114.987373
 30
0.0
 40
0.759697
 50
0.0
 51
156.574997
  0
ARC
  8
ARMATUR
  6
DURCHGEHEND
 62
     1
  5
1D0
 10
107.87381
 20
114.987373
 30
0.0
 40
0.759697
 50
242.792007
 51
360.0
  0
ARC
  8
ARMATUR
  6
DURCHGEHEND
 62
     1
  5
1D1
 10
111.220482
 20
101.587379
 30
0.0
 40
0.759705
 50
0.0
 51
156.574997
  0
ARC
  8
ARMATUR
  6
DURCHGEHEND
 62
     1
  5
1D2
 10
111.220482
 20
101.587379
 30
0.0
 40
0.759705
 50
242.792007
 51
360.0
  0
ARC
  8
ARMATUR
  6
DURCHGEHEND
 62
     1
  5
1D3
 10
111.220482
 20
104.93737
 30
0.0
 40
0.759705
 50
0.0
 51
156.574997
  0
ARC
  8
ARMATUR
  6
DURCHGEHEND
 62
     1
  5
1D4
 10
111.220482
 20
104.93737
 30
0.0
 40
0.759705
 50
242.792007
 51
360.0
  0
ARC
  8
ARMATUR
  6
DURCHGEHEND
 62
     1
  5
1D5
 10
111.220482
 20
108.287376
 30
0.0
 40
0.759727
 50
0.0
 51
156.574997
  0
ARC
  8
ARMATUR
  6
DURCHGEHEND
 62
     1
  5
1D6
 10
111.220482
 20
108.287376
 30
0.0
 40
0.759727
 50
242.792007
 51
360.0
  0
ARC
  8
ARMATUR
  6
DURCHGEHEND
 62
     1
  5
1D7
 10
111.220482
 20
111.637375
 30
0.0
 40
0.759705
 50
0.0
 51
156.574997
  0
ARC
  8
ARMATUR
  6
DURCHGEHEND
 62
     1
  5
1D8
 10
111.220482
 20
111.637375
 30
0.0
 40
0.759705
 50
242.792007
 51
360.0
  0
ARC
  8
ARMATUR
  6
DURCHGEHEND
 62
     1
  5
1D9
 10
111.220482
 20
114.987373
 30
0.0
 40
0.759705
 50
0.0
 51
156.574997
  0
ARC
  8
ARMATUR
  6
DURCHGEHEND
 62
     1
  5
1DA
 10
111.220482
 20
114.987373
 30
0.0
 40
0.759705
 50
242.792007
 51
360.0
  0
ARC
  8
ARMATUR
  6
DURCHGEHEND
 62
     1
  5
1DB
 10
114.567162
 20
101.587372
 30
0.0
 40
0.759697
 50
0.0
 51
156.574997
  0
ARC
  8
ARMATUR
  6
DURCHGEHEND
 62
     1
  5
1DC
 10
114.567162
 20
101.587372
 30
0.0
 40
0.759697
 50
242.792007
 51
360.0
  0
ARC
  8
ARMATUR
  6
DURCHGEHEND
 62
     1
  5
1DD
 10
114.567162
 20
104.93737
 30
0.0
 40
0.759697
 50
0.0
 51
156.574997
  0
ARC
  8
ARMATUR
  6
DURCHGEHEND
 62
     1
  5
1DE
 10
114.567162
 20
104.93737
 30
0.0
 40
0.759697
 50
242.792007
 51
360.0
  0
ARC
  8
ARMATUR
  6
DURCHGEHEND
 62
     1
  5
1DF
 10
114.567162
 20
108.287376
 30
0.0
 40
0.759727
 50
0.0
 51
156.574997
  0
ARC
  8
ARMATUR
  6
DURCHGEHEND
 62
     1
  5
1E0
 10
114.567162
 20
108.287376
 30
0.0
 40
0.759727
 50
242.792007
 51
360.0
  0
ARC
  8
ARMATUR
  6
DURCHGEHEND
 62
     1
  5
1E1
 10
114.567162
 20
111.637375
 30
0.0
 40
0.759697
 50
0.0
 51
156.574997
  0
ARC
  8
ARMATUR
  6
DURCHGEHEND
 62
     1
  5
1E2
 10
114.567162
 20
111.637375
 30
0.0
 40
0.759697
 50
242.792007
 51
360.0
  0
ARC
  8
ARMATUR
  6
DURCHGEHEND
 62
     1
  5
1E3
 10
114.567162
 20
114.987373
 30
0.0
 40
0.759697
 50
0.0
 51
156.574997
  0
ARC
  8
ARMATUR
  6
DURCHGEHEND
 62
     1
  5
1E4
 10
114.567162
 20
114.987373
 30
0.0
 40
0.759697
 50
242.792007
 51
360.0
  0
ARC
  8
ARMATUR
  6
DURCHGEHEND
 62
     1
  5
1E5
 10
117.913834
 20
104.93737
 30
0.0
 40
0.759697
 50
0.0
 51
156.574997
  0
ARC
  8
ARMATUR
  6
DURCHGEHEND
 62
     1
  5
1E6
 10
117.913834
 20
104.93737
 30
0.0
 40
0.759697
 50
242.792007
 51
360.0
  0
ARC
  8
ARMATUR
  6
DURCHGEHEND
 62
     1
  5
1E7
 10
117.913834
 20
101.587372
 30
0.0
 40
0.759697
 50
0.0
 51
156.574997
  0
ARC
  8
ARMATUR
  6
DURCHGEHEND
 62
     1
  5
1E8
 10
117.913834
 20
101.587372
 30
0.0
 40
0.759697
 50
242.792007
 51
360.0
  0
ARC
  8
ARMATUR
  6
DURCHGEHEND
 62
     1
  5
1E9
 10
117.913834
 20
108.287376
 30
0.0
 40
0.759727
 50
0.0
 51
156.574997
  0
ARC
  8
ARMATUR
  6
DURCHGEHEND
 62
     1
  5
1EA
 10
117.913834
 20
108.287376
 30
0.0
 40
0.759727
 50
242.792007
 51
360.0
  0
ARC
  8
ARMATUR
  6
DURCHGEHEND
 62
     1
  5
1EB
 10
117.913834
 20
111.637375
 30
0.0
 40
0.759697
 50
0.0
 51
156.574997
  0
ARC
  8
ARMATUR
  6
DURCHGEHEND
 62
     1
  5
1EC
 10
117.913834
 20
111.637375
 30
0.0
 40
0.759697
 50
242.792007
 51
360.0
  0
ARC
  8
ARMATUR
  6
DURCHGEHEND
 62
     1
  5
1ED
 10
117.913834
 20
114.987373
 30
0.0
 40
0.759697
 50
0.0
 51
156.574997
  0
ARC
  8
ARMATUR
  6
DURCHGEHEND
 62
     1
  5
1EE
 10
117.913834
 20
114.987373
 30
0.0
 40
0.759697
 50
242.792007
 51
360.0
  0
ARC
  8
ARMATUR
  6
DURCHGEHEND
 62
     1
  5
1EF
 10
121.260506
 20
101.587372
 30
0.0
 40
0.759727
 50
0.0
 51
156.574997
  0
ARC
  8
ARMATUR
  6
DURCHGEHEND
 62
     1
  5
1F0
 10
121.260506
 20
101.587372
 30
0.0
 40
0.759727
 50
242.792007
 51
360.0
  0
ARC
  8
ARMATUR
  6
DURCHGEHEND
 62
     1
  5
1F1
 10
121.260506
 20
104.93737
 30
0.0
 40
0.759727
 50
0.0
 51
156.574997
  0
ARC
  8
ARMATUR
  6
DURCHGEHEND
 62
     1
  5
1F2
 10
121.260506
 20
104.93737
 30
0.0
 40
0.759727
 50
242.792007
 51
360.0
  0
ARC
  8
ARMATUR
  6
DURCHGEHEND
 62
     1
  5
1F3
 10
121.260506
 20
108.287376
 30
0.0
 40
0.759727
 50
0.0
 51
156.574997
  0
ARC
  8
ARMATUR
  6
DURCHGEHEND
 62
     1
  5
1F4
 10
121.260506
 20
108.287376
 30
0.0
 40
0.759727
 50
242.792007
 51
360.0
  0
ARC
  8
ARMATUR
  6
DURCHGEHEND
 62
     1
  5
1F5
 10
121.260506
 20
111.637375
 30
0.0
 40
0.759697
 50
0.0
 51
156.574997
  0
ARC
  8
ARMATUR
  6
DURCHGEHEND
 62
     1
  5
1F6
 10
121.260506
 20
111.637375
 30
0.0
 40
0.759697
 50
242.792007
 51
360.0
  0
ARC
  8
ARMATUR
  6
DURCHGEHEND
 62
     1
  5
1F7
 10
121.260506
 20
114.987373
 30
0.0
 40
0.759727
 50
0.0
 51
156.574997
  0
ARC
  8
ARMATUR
  6
DURCHGEHEND
 62
     1
  5
1F8
 10
121.260506
 20
114.987373
 30
0.0
 40
0.759727
 50
242.792007
 51
360.0
  0
LINE
  8
ARMATUR
  6
DURCHGEHEND
 62
     1
  5
1F9
 10
183.720123
 20
100.853973
 30
0.0
 11
183.748978
 21
100.855484
 31
0.0
  0
LINE
  8
ARMATUR
  6
DURCHGEHEND
 62
     1
  5
1FA
 10
183.748978
 20
102.319809
 30
0.0
 11
183.720123
 21
102.321335
 31
0.0
  0
LINE
  8
ARMATUR
  6
DURCHGEHEND
 62
     1
  5
1FB
 10
183.720123
 20
114.253983
 30
0.0
 11
183.748978
 21
114.255493
 31
0.0
  0
LINE
  8
ARMATUR
  6
DURCHGEHEND
 62
     1
  5
1FC
 10
183.748978
 20
115.719818
 30
0.0
 11
183.720123
 21
115.721329
 31
0.0
  0
LINE
  8
ARMATUR
  6
DURCHGEHEND
 62
     1
  5
1FD
 10
183.720123
 20
104.203979
 30
0.0
 11
183.748978
 21
104.20549
 31
0.0
  0
LINE
  8
ARMATUR
  6
DURCHGEHEND
 62
     1
  5
1FE
 10
183.748978
 20
105.669815
 30
0.0
 11
183.720123
 21
105.671326
 31
0.0
  0
LINE
  8
ARMATUR
  6
DURCHGEHEND
 62
     1
  5
1FF
 10
183.720123
 20
107.55397
 30
0.0
 11
183.748978
 21
107.555496
 31
0.0
  0
LINE
  8
ARMATUR
  6
DURCHGEHEND
 62
     1
  5
200
 10
183.748978
 20
109.019821
 30
0.0
 11
183.720123
 21
109.021332
 31
0.0
  0
LINE
  8
ARMATUR
  6
DURCHGEHEND
 62
     1
  5
201
 10
183.720123
 20
110.903976
 30
0.0
 11
183.748978
 21
110.905487
 31
0.0
  0
LINE
  8
ARMATUR
  6
DURCHGEHEND
 62
     1
  5
202
 10
183.748978
 20
112.369812
 30
0.0
 11
183.720123
 21
112.371323
 31
0.0
  0
ARC
  8
ARMATUR
  6
DURCHGEHEND
 62
     1
  5
203
 10
183.746353
 20
112.319885
 30
0.0
 40
0.050003
 50
4.992
 51
86.991997
  0
ARC
  8
ARMATUR
  6
DURCHGEHEND
 62
     1
  5
204
 10
183.746353
 20
110.955414
 30
0.0
 40
0.050003
 50
273.01001
 51
355.01001
  0
ARC
  8
ARMATUR
  6
DURCHGEHEND
 62
     1
  5
205
 10
183.746353
 20
115.669891
 30
0.0
 40
0.050003
 50
4.992
 51
86.991997
  0
ARC
  8
ARMATUR
  6
DURCHGEHEND
 62
     1
  5
206
 10
183.746353
 20
114.30542
 30
0.0
 40
0.050003
 50
273.01001
 51
355.01001
  0
ARC
  8
ARMATUR
  6
DURCHGEHEND
 62
     1
  5
207
 10
183.746353
 20
108.969879
 30
0.0
 40
0.050003
 50
4.992
 51
86.991997
  0
ARC
  8
ARMATUR
  6
DURCHGEHEND
 62
     1
  5
208
 10
183.746353
 20
107.605423
 30
0.0
 40
0.050003
 50
273.01001
 51
355.01001
  0
ARC
  8
ARMATUR
  6
DURCHGEHEND
 62
     1
  5
209
 10
183.746353
 20
102.269882
 30
0.0
 40
0.050003
 50
4.992
 51
86.991997
  0
ARC
  8
ARMATUR
  6
DURCHGEHEND
 62
     1
  5
20A
 10
183.746353
 20
100.905426
 30
0.0
 40
0.050003
 50
273.01001
 51
355.01001
  0
ARC
  8
ARMATUR
  6
DURCHGEHEND
 62
     1
  5
20B
 10
183.746353
 20
105.619888
 30
0.0
 40
0.050003
 50
4.992
 51
86.991997
  0
ARC
  8
ARMATUR
  6
DURCHGEHEND
 62
     1
  5
20C
 10
183.746353
 20
104.255417
 30
0.0
 40
0.050003
 50
273.01001
 51
355.01001
  0
LINE
  8
ARMATUR
  6
DURCHGEHEND
 62
     1
  5
20D
 10
183.796173
 20
114.301056
 30
0.0
 11
183.844757
 21
114.8564
 31
0.0
  0
LINE
  8
ARMATUR
  6
DURCHGEHEND
 62
     1
  5
20E
 10
183.844757
 20
115.118896
 30
0.0
 11
183.796173
 21
115.67424
 31
0.0
  0
LINE
  8
ARMATUR
  6
DURCHGEHEND
 62
     1
  5
20F
 10
183.796173
 20
104.251068
 30
0.0
 11
183.844757
 21
104.806396
 31
0.0
  0
LINE
  8
ARMATUR
  6
DURCHGEHEND
 62
     1
  5
210
 10
183.844757
 20
105.068909
 30
0.0
 11
183.796173
 21
105.624237
 31
0.0
  0
LINE
  8
ARMATUR
  6
DURCHGEHEND
 62
     1
  5
211
 10
183.796173
 20
110.951065
 30
0.0
 11
183.844757
 21
111.506409
 31
0.0
  0
LINE
  8
ARMATUR
  6
DURCHGEHEND
 62
     1
  5
212
 10
183.844757
 20
111.768906
 30
0.0
 11
183.796173
 21
112.324249
 31
0.0
  0
LINE
  8
ARMATUR
  6
DURCHGEHEND
 62
     1
  5
213
 10
183.796173
 20
100.901062
 30
0.0
 11
183.844757
 21
101.456406
 31
0.0
  0
LINE
  8
ARMATUR
  6
DURCHGEHEND
 62
     1
  5
214
 10
183.844757
 20
101.718903
 30
0.0
 11
183.796173
 21
102.274246
 31
0.0
  0
LINE
  8
ARMATUR
  6
DURCHGEHEND
 62
     1
  5
215
 10
183.796173
 20
107.601059
 30
0.0
 11
183.844757
 21
108.156403
 31
0.0
  0
LINE
  8
ARMATUR
  6
DURCHGEHEND
 62
     1
  5
216
 10
183.844757
 20
108.4189
 30
0.0
 11
183.796173
 21
108.974243
 31
0.0
  0
LINE
  8
ARMATUR
  6
DURCHGEHEND
 62
     1
  5
217
 10
183.720123
 20
123.062653
 30
0.0
 11
183.720123
 21
93.51265
 31
0.0
  0
LINE
  8
ARMATUR
  6
DURCHGEHEND
 62
     1
  5
218
 10
181.42012
 20
123.26265
 30
0.0
 11
183.520111
 21
123.26265
 31
0.0
  0
LINE
  8
ARMATUR
  6
DURCHGEHEND
 62
     1
  5
219
 10
181.42012
 20
123.062653
 30
0.0
 11
181.42012
 21
123.26265
 31
0.0
  0
ARC
  8
ARMATUR
  6
DURCHGEHEND
 62
     1
  5
21A
 10
183.520111
 20
93.51265
 30
0.0
 40
0.199997
 50
270.0
 51
360.0
  0
LINE
  8
ARMATUR
  6
DURCHGEHEND
 62
     1
  5
21B
 10
183.520111
 20
93.312653
 30
0.0
 11
181.42012
 21
93.312653
 31
0.0
  0
LINE
  8
ARMATUR
  6
DURCHGEHEND
 62
     1
  5
21C
 10
181.42012
 20
93.312653
 30
0.0
 11
181.42012
 21
93.51265
 31
0.0
  0
LINE
  8
ARMATUR
  6
DURCHGEHEND
 62
     1
  5
21D
 10
181.42012
 20
93.51265
 30
0.0
 11
181.42012
 21
123.062653
 31
0.0
  0
ARC
  8
ARMATUR
  6
DURCHGEHEND
 62
     1
  5
21E
 10
183.520111
 20
123.062653
 30
0.0
 40
0.199997
 50
0.0
 51
90.0
  0
LINE
  8
ARMATUR
  6
DURCHGEHEND
 62
     1
  5
21F
 10
181.42012
 20
93.312653
 30
0.0
 11
181.79512
 21
93.312653
 31
0.0
  0
LINE
  8
ARMATUR
  6
DURCHGEHEND
 62
     1
  5
220
 10
183.844757
 20
115.118896
 30
0.0
 11
183.844757
 21
114.8564
 31
0.0
  0
LINE
  8
ARMATUR
  6
DURCHGEHEND
 62
     1
  5
221
 10
183.844757
 20
105.068909
 30
0.0
 11
183.844757
 21
104.806396
 31
0.0
  0
LINE
  8
ARMATUR
  6
DURCHGEHEND
 62
     1
  5
222
 10
183.844757
 20
111.768906
 30
0.0
 11
183.844757
 21
111.506409
 31
0.0
  0
LINE
  8
ARMATUR
  6
DURCHGEHEND
 62
     1
  5
223
 10
183.844757
 20
101.718903
 30
0.0
 11
183.844757
 21
101.456406
 31
0.0
  0
LINE
  8
ARMATUR
  6
DURCHGEHEND
 62
     1
  5
224
 10
183.844757
 20
108.4189
 30
0.0
 11
183.844757
 21
108.156403
 31
0.0
  0
LINE
  8
ARMATUR
  6
DURCHGEHEND
 62
     1
  5
225
 10
183.748978
 20
100.855484
 30
0.0
 11
183.748978
 21
102.319809
 31
0.0
  0
LINE
  8
ARMATUR
  6
DURCHGEHEND
 62
     1
  5
226
 10
183.748978
 20
114.255493
 30
0.0
 11
183.748978
 21
115.719818
 31
0.0
  0
LINE
  8
ARMATUR
  6
DURCHGEHEND
 62
     1
  5
227
 10
183.748978
 20
104.20549
 30
0.0
 11
183.748978
 21
105.669815
 31
0.0
  0
LINE
  8
ARMATUR
  6
DURCHGEHEND
 62
     1
  5
228
 10
183.748978
 20
107.555496
 30
0.0
 11
183.748978
 21
109.019821
 31
0.0
  0
LINE
  8
ARMATUR
  6
DURCHGEHEND
 62
     1
  5
229
 10
183.748978
 20
110.905487
 30
0.0
 11
183.748978
 21
112.369812
 31
0.0
  0
LINE
  8
ARMATUR
  6
DURCHGEHEND
 62
     1
  5
22A
 10
183.796173
 20
112.324249
 30
0.0
 11
183.796173
 21
110.951065
 31
0.0
  0
LINE
  8
ARMATUR
  6
DURCHGEHEND
 62
     1
  5
22B
 10
183.796173
 20
115.67424
 30
0.0
 11
183.796173
 21
114.301056
 31
0.0
  0
LINE
  8
ARMATUR
  6
DURCHGEHEND
 62
     1
  5
22C
 10
183.796173
 20
108.974243
 30
0.0
 11
183.796173
 21
107.601059
 31
0.0
  0
LINE
  8
ARMATUR
  6
DURCHGEHEND
 62
     1
  5
22D
 10
183.796173
 20
102.274246
 30
0.0
 11
183.796173
 21
100.901062
 31
0.0
  0
LINE
  8
ARMATUR
  6
DURCHGEHEND
 62
     1
  5
22E
 10
183.796173
 20
105.624245
 30
0.0
 11
183.796173
 21
104.251068
 31
0.0
  0
LINE
  8
ACHSEN
  6
STRICHPUNKTIERT
 62
     4
  5
22F
 10
97.761765
 20
108.269775
 30
0.0
 11
131.491058
 21
108.269775
 31
0.0
  0
LINE
  8
ACHSEN
  6
STRICHPUNKTIERT
 62
     4
  5
230
 10
179.914581
 20
108.262657
 30
0.0
 11
185.600098
 21
108.262657
 31
0.0
  0
LINE
  8
ACHSEN
  6
STRICHPUNKTIERT
 62
     4
  5
231
 10
114.582481
 20
124.351387
 30
0.0
 11
114.582481
 21
91.9011
 31
0.0
  0
TEXT
  8
TEXT
  5
232
 10
109.203285
 20
146.836456
 30
0.0
 40
7.055555
  1
120
  0
TEXT
  8
TEXT
  5
233
 10
173.804886
 20
147.317673
 30
0.0
 40
7.055555
  1
9
  0
POLYLINE
  8
TEXT
  6
DURCHGEHEND
 62
     9
  5
234
 66
     1
 10
0.0
 20
0.0
 30
0.0
  0
VERTEX
  8
0
  5
235
 10
109.018852
 20
139.425674
 30
0.0
  0
VERTEX
  8
0
  5
236
 10
109.018852
 20
135.925674
 30
0.0
  0
VERTEX
  8
0
  5
237
 10
112.518837
 20
135.925674
 30
0.0
  0
VERTEX
  8
0
  5
238
 10
112.518837
 20
139.425674
 30
0.0
  0
VERTEX
  8
0
  5
239
 10
109.018852
 20
139.425674
 30
0.0
  0
SEQEND
  8
0
  5
23A
  0
TEXT
  8
TEXT
  5
23B
 10
112.955215
 20
135.032593
 30
0.0
 40
7.055555
  1
60
  0
POLYLINE
  8
TEXT
  6
DURCHGEHEND
 62
     9
  5
23C
 66
     1
 10
0.0
 20
0.0
 30
0.0
  0
VERTEX
  8
0
  5
23D
 10
105.271011
 20
147.538895
 30
0.0
  0
VERTEX
  8
0
  5
23E
 10
108.771011
 20
147.538895
 30
0.0
  0
VERTEX
  8
0
  5
23F
 10
108.771011
 20
151.038895
 30
0.0
  0
VERTEX
  8
0
  5
240
 10
105.271011
 20
151.038895
 30
0.0
  0
VERTEX
  8
0
  5
241
 10
105.271011
 20
147.538895
 30
0.0
  0
SEQEND
  8
0
  5
242
  0
LINE
  8
BEMASSUNG
  6
DURCHGEHEND
 62
     3
  5
243
 10
99.526741
 20
123.75946
 30
0.0
 11
99.526741
 21
147.25267
 31
0.0
  0
LINE
  8
BEMASSUNG
  6
DURCHGEHEND
 62
     3
  5
244
 10
129.610062
 20
124.35099
 30
0.0
 11
129.610062
 21
147.760391
 31
0.0
  0
LINE
  8
BEMASSUNG
  6
DURCHGEHEND
 62
     3
  5
245
 10
98.633781
 20
146.150803
 30
0.0
 11
130.818161
 21
146.150803
 31
0.0
  0
LINE
  8
BEMASSUNG
  6
DURCHGEHEND
 62
     3
  5
246
 10
100.587059
 20
147.301804
 30
0.0
 11
98.41317
 21
144.855667
 31
0.0
  0
LINE
  8
BEMASSUNG
  6
DURCHGEHEND
 62
     3
  5
247
 10
130.717026
 20
147.411057
 30
0.0
 11
128.543137
 21
144.96492
 31
0.0
  0
LINE
  8
BEMASSUNG
  6
DURCHGEHEND
 62
     3
  5
248
 10
181.42012
 20
132.175171
 30
0.0
 11
181.42012
 21
147.25267
 31
0.0
  0
LINE
  8
BEMASSUNG
  6
DURCHGEHEND
 62
     3
  5
249
 10
183.67012
 20
124.512657
 30
0.0
 11
183.67012
 21
147.557312
 31
0.0
  0
LINE
  8
BEMASSUNG
  6
DURCHGEHEND
 62
     3
  5
24A
 10
173.958954
 20
146.150803
 30
0.0
 11
184.654953
 21
146.150803
 31
0.0
  0
LINE
  8
BEMASSUNG
  6
DURCHGEHEND
 62
     3
  5
24B
 10
182.480438
 20
147.326859
 30
0.0
 11
180.306549
 21
144.880722
 31
0.0
  0
LINE
  8
BEMASSUNG
  6
DURCHGEHEND
 62
     3
  5
24C
 10
184.777084
 20
147.522766
 30
0.0
 11
182.603195
 21
145.07663
 31
0.0
  0
LINE
  8
BEMASSUNG
  6
DURCHGEHEND
 62
     3
  5
24D
 10
122.064812
 20
115.76149
 30
0.0
 11
122.064812
 21
135.47084
 31
0.0
  0
LINE
  8
BEMASSUNG
  6
DURCHGEHEND
 62
     3
  5
24E
 10
107.157265
 20
115.921326
 30
0.0
 11
107.157265
 21
135.481766
 31
0.0
  0
LINE
  8
BEMASSUNG
  6
DURCHGEHEND
 62
     3
  5
24F
 10
123.428101
 20
134.19429
 30
0.0
 11
106.033127
 21
134.19429
 31
0.0
  0
LINE
  8
BEMASSUNG
  6
DURCHGEHEND
 62
     3
  5
250
 10
123.209595
 20
135.467438
 30
0.0
 11
121.035706
 21
133.021317
 31
0.0
  0
LINE
  8
BEMASSUNG
  6
DURCHGEHEND
 62
     3
  5
251
 10
108.264008
 20
135.441696
 30
0.0
 11
106.090149
 21
132.99556
 31
0.0
  0
LINE
  8
WAND
  6
DURCHGEHEND
 62
     6
  5
252
 10
181.42012
 20
84.013695
 30
0.0
 11
181.42012
 21
130.925171
 31
0.0
  0
ENDSEC
  0
EOF
